Akhirnya Ku Menemukanmu - D'Masiv

Artis D'Masiv
Penulis Lagu NaFF
Pilihan TablatureTab Gitar Versi Pro - ASCII Tablature

Tab Gitar Versi Pro

Gitagram Tab Player loading
0%
-
00:00 / 00:00

Jika anda memiliki software/aplikasi Guitar Pro atau TuxGuitar, kamu bisa download file tablature Akhirnya Ku Menemukanmu Dmasiv berformat GP5 di sini.

FYI: Guitar Pro adalah aplikasi berbayar yang tersedia untuk berbagai platform seperti Windows, MacOS, Android dan iOS. Sedangkan TuxGuitar adalah aplikasi gratis yang tersedia untuk platform Windows, Linux dan Android

ASCII Tablature

Tablature versi teks yang umum digunakan pada gitar.

Track 2: Lead Guitar

E|--------|--------------------|---------------------------------|------------------------------|
B|--------|--------------------|---------------------------------|------------------------------|
G|--------|----------------1---|-1---1---1---1---1---1---1---1---|-1---1---1---1---1---2----1---|
D|--------|----------------2---|-2---2---2---2---2---2---2---2---|-2---2---2---2---2---2----2---|
A|--------|--------------------|---------------------------------|------------------------------|
E|--------|--------------------|---------------------------------|------------------------------|


E|---------------------------------|------------------------------|---------2-------------------4--5--|
B|---------------------------------|------------------------------|-----------------5-------4---------|
G|-1---1---1---1---1---1---1---1---|-1---1---1---1---1---2--------|-----4-------4-------4-------------|
D|-2---2---2---2---2---2---2---2---|-2---2---2---2---2---2----2---|-2---------------------------------|
A|---------------------------------|------------------------------|-----------------------------------|
E|---------------------------------|------------------------------|-----------------------------------|


E|-7---4---7---4---5---4-----------|---------2-----------------------|-----------------0---2---4-------|
B|-------------------------5-------|-----------------5-------4---0---|-5---4---0---4-------------------|
G|-----------------------------4---|-4---4-------4-------4-------4---|-----------------------------1---|
D|---------------------------------|---------------------------------|-----------------------------2---|
A|---------------------------------|---------------------------------|---------------------------------|
E|---------------------------------|---------------------------------|---------------------------------|


E|---------------------------------|------------------------------|-----------------------------4--5--|
B|---------------------------------|------------------------------|-----------------------------------|
G|-1---1---1---1---1---1---1---1---|-1---1---1---1---1---2----1---|-1---1---1---1---1---1---1---------|
D|-2---2---2---2---2---2---2---2---|-2---2---2---2---2---2----2---|-2---2---2---2---2---2---2---------|
A|---------------------------------|------------------------------|-----------------------------------|
E|---------------------------------|------------------------------|-----------------------------------|


E|-7---4--5--4---5---4---------------|---------2-------0-----------4---|-------------------------------------2---0---|
B|-----------------------5---4-------|-----------------5---0---4-------|----------------------0-----0--2--4----------|
G|-------------------------------4---|-4---4-------4-------4-----------|----------1-----1--2-----2-------------------|
D|-----------------------------------|---------------------------------|-1--2--4-----4-------------------------------|
A|-----------------------------------|---------------------------------|---------------------------------------------|
E|-----------------------------------|---------------------------------|---------------------------------------------|


E|-0-------0-------0-------0-------|-----------------2-------0-------|-4-----------|
B|-----0-------0-------0-------0---|-4-------4-----------0-------0---|-------------|
G|---------------------------------|-----4-------4-------------------|-------------|
D|---------------------------------|---------------------------------|-------------|
A|---------------------------------|---------------------------------|-------------|
E|---------------------------------|---------------------------------|-------------|


E|--------|--------|--------|---------------------|------------------------|---------------------|
B|--------|--------|--------|---------------------|------------------------|---------------------|
G|--------|--------|--------|---------------------|------------------------|---------------------|
D|--------|--------|--------|-2----2----2----2----|-2----2----2----2---1---|-2----2----2----2----|
A|--------|--------|--------|-2----2----2----2----|-2----2----2----2---2---|-2----2----2----2----|
E|--------|--------|--------|---------------------|------------------------|---------------------|


E|---------------------|--------------------|--------|--------|--------|---------------------|
B|---------------------|--------------------|--------|--------|--------|---------------------|
G|---------------------|-2-----2------------|--------|--------|--------|---------------------|
D|-2----2----2----2----|-2-----2------------|--------|--------|--------|-2----2----2----2----|
A|-2----2----2----2----|-0-----0------------|--------|--------|--------|-2----2----2----2----|
E|---------------------|--------------------|--------|--------|--------|---------------------|


E|------------------------|---------------------|---------------------|------------------------------|
B|------------------------|---------------------|---------------------|------------------------------|
G|------------------------|---------------------|---------------------|------------------------------|
D|-2----2----2----2---1---|-2----2----2----2----|-2----2----2----2----|-----------------2------------|
A|-2----2----2----2---2---|-2----2----2----2----|-2----2----2----2----|-4---4---2---4-------4----4---|
E|------------------------|---------------------|---------------------|------------------------------|


E|------------------------------|------------------------------|------------------------------|
B|------------------------------|------------------------------|------------------------------|
G|------------------------------|------------------------------|------------------------------|
D|-----------------2------------|------------------------------|------------------------------|
A|-4---4---2---4-------4----4---|-----------------2------------|-----------------2------------|
E|------------------------------|-4---4---2---4-------4----4---|-4---4---2---4-------4----4---|


E|---------------------------------|---------------------------|--------|-------------|
B|---------------------------------|---------------------------|--------|-------------|
G|---------------------------------|---------------------------|--------|-------------|
D|---------------------------------|---------------------------|-2------|-1-----------|
A|-0---0---0-------0-------0---0---|-0-------0-------0---0-----|-2------|-3-----3-----|
E|---------------------------------|---------------------------|--------|-------4-----|


E|-------------------------------------------------|-------------------------------------------------|
B|-------------------------------------0---2---4---|-------------------------------------0---2---4---|
G|---------------------1-------1---2---------------|---------------------1-------1---2---------------|
D|-1---2---4---2---4-------4-----------------------|-1---2---4---2---4-------4-----------------------|
A|-------------------------------------------------|-------------------------------------------------|
E|-------------------------------------------------|-------------------------------------------------|


E|-------------------------------------------------|-------------------------------------------------|
B|---------------------------------------------0---|---------------------------------------------0---|
G|-------------------------------------1---2-------|-------------------------------------1---2-------|
D|---------1-------1---2---1---2---4---------------|---------1-------1---2---1---2---4---------------|
A|-2---4-------4-----------------------------------|-2---4-------4-----------------------------------|
E|-------------------------------------------------|-------------------------------------------------|


E|---------------------|---------------------|-------------------------------------------------|
B|---------------------|---------------------|-0-----------------------------------------------|
G|------2---------2----|------3---------3----|----2--1-----2--1--------1-----------------------|
D|---------------------|---------------------|----------4--------4--2-----4--2--1--4--2--1-----|
A|-0---------0---------|-1---------1---------|----------------------------------------------4--|
E|---------------------|---------------------|-------------------------------------------------|


E|-------------|---------------------------------|---------------------------------|
B|-------------|---------------------------------|---------------------------------|
G|-------------|---------------------------------|---------------------------------|
D|-------------|---------------------------------|---------------------------------|
A|-2-----------|-4-------4-------4-------4-------|-4-------4-------4-------4---6---|
E|-------------|-4-------4-------4-------4-------|-4-------4-------4-------4---4---|


E|-----------------------|-----------------------|--------|--------|-0----2----0----2----|
B|-----------------------|-----------------------|--------|--------|---------------------|
G|-----------------------|-----------------------|--------|--------|---------------------|
D|-----------------------|-----------------------|--------|--------|---------------------|
A|-6---6---6---------6---|-6---6---6---------7---|-7------|-7------|---------------------|
E|-4---4---4---------4---|-4---4---4---------5---|-5------|-5------|---------------------|


E|-0---------0---------|--------|--------|--------|--------|--------|--------|--------|
B|------4---------4----|--------|--------|--------|--------|--------|--------|--------|
G|---------------------|--------|--------|--------|--------|-2------|-2------|-4------|
D|---------------------|--------|--------|-6------|-6------|-2------|-2------|-4------|
A|---------------------|-4------|-4------|-6------|-6------|-0------|-0------|-2------|
E|---------------------|-4------|-4------|-4------|-4------|--------|--------|--------|


E|--------|------------------|------------------|------------------|---------------------|
B|--------|------------------|------------------|------------------|---------------------|
G|-5------|------------------|------------------|------------------|-----------------1---|
D|-5------|-2-----2-----2----|-2-----2-----2----|-2-----2-----2----|-2-----2-----2---2---|
A|-3------|-4-----4-----4----|-4-----4-----4----|-4-----4-----4----|-4-----4-----4---2---|
E|--------|-4-----4-----4----|-4-----4-----4----|-4-----4-----4----|-4-----4-----4-------|


E|---------------------------------|------------------------------|-----------------------------4--5--|
B|---------------------------------|------------------------------|-----------------------------------|
G|-1---1---1---1---1---1---1---1---|-1---1---1---1---1---2----1---|-1---1---1---1---1---1---1---------|
D|-2---2---2---2---2---2---2---2---|-2---2---2---2---2---2----2---|-2---2---2---2---2---2---2---------|
A|-2-------------------------------|------------------------------|-----------------------------------|
E|---------------------------------|------------------------------|-----------------------------------|


E|-7---4--5--4---5---4---------------|-0------|-0------|-0------|-0------0-------|
B|-----------------------5---4-------|--------|--------|--------|----------------|
G|-------------------------------4---|--------|--------|--------|----------------|
D|-----------------------------------|--------|--------|--------|----------------|
A|-----------------------------------|--------|--------|--------|----------------|
E|-----------------------------------|--------|--------|--------|----------------|


E|--------|--------|--------|--------|--------|--------|--------|--------|------0--------------|
B|--------|--------|--------|--------|--------|--------|--------|--------|-----------0---------|
G|--------|--------|--------|--------|--------|--------|--------|--------|---------------------|
D|--------|--------|--------|--------|--------|--------|--------|--------|---------------2-----|
A|--------|--------|--------|--------|-0------|-0------|-0------|-0------|---------------------|
E|--------|--------|--------|--------|--------|--------|--------|--------|---------------------|


E|----------0-------------|-0----7----0---12----|--------|------------------------------|
B|--------------4---0-----|---------------------|--------|------------------------------|
G|------------------------|---------------------|--------|------------------------------|
D|-2----2-----------------|---------------------|--------|-----------------2------------|
A|------------------------|---------------------|--------|-4---4---2---4-------4----4---|
E|------------------------|---------------------|--------|------------------------------|


E|------------------------------|------------------------------|------------------------------|
B|------------------------------|------------------------------|------------------------------|
G|------------------------------|------------------------------|------------------------------|
D|-----------------2------------|------------------------------|------------------------------|
A|-4---4---2---4-------4----4---|-----------------2------------|-----------------2------------|
E|------------------------------|-4---4---2---4-------4----4---|-4---4---2---4-------4----4---|


E|---------------------------------|---------------------------|--------|-------------|
B|---------------------------------|---------------------------|--------|-------------|
G|---------------------------------|---------------------------|--------|-------------|
D|---------------------------------|---------------------------|-2------|-1-----------|
A|-0---0---0-------0-------0---0---|-0-------0-------0---0-----|-2------|-3-----3-----|
E|---------------------------------|---------------------------|--------|-------4-----|


E|-------------------------------------------------|-------------------------------------------------|
B|-------------------------------------0---2---4---|-------------------------------------0---2---4---|
G|---------------------1-------1---2---------------|---------------------1-------1---2---------------|
D|-1---2---4---2---4-------4-----------------------|-1---2---4---2---4-------4-----------------------|
A|-------------------------------------------------|-------------------------------------------------|
E|-------------------------------------------------|-------------------------------------------------|


E|-------------------------------------------------|-------------------------------------------------|
B|---------------------------------------------0---|---------------------------------------------0---|
G|-------------------------------------1---2-------|-------------------------------------1---2-------|
D|---------1-------1---2---1---2---4---------------|---------1-------1---2---1---2---4---------------|
A|-2---4-------4-----------------------------------|-2---4-------4-----------------------------------|
E|-------------------------------------------------|-------------------------------------------------|


E|---------------------|---------------------|-------------------------------------------------|
B|---------------------|---------------------|-0-----------------------------------------------|
G|------2---------2----|------3---------3----|----2--1-----2--1--------1-----------------------|
D|---------------------|---------------------|----------4--------4--2-----4--2--1--4--2--1-----|
A|-0---------0---------|-1---------1---------|----------------------------------------------4--|
E|---------------------|---------------------|-------------------------------------------------|


E|-------------|--------|--------|-----------------0---|-2----2---0---2-----|-2------2---0---|
B|-------------|--------|--------|-------0----2--------|--------------------|----------------|
G|-------------|--------|--------|---------------------|--------------------|----------------|
D|-------------|--------|--------|---------------------|--------------------|----------------|
A|-2-----------|--------|--------|---------------------|--------------------|----------------|
E|-------------|--------|--------|---------------------|--------------------|----------------|


E|-0-----------|-----7----9---7-----------7---|-7---9---7-------7----9--7------|-7------|
B|-------------|------------------9-----------|-------------9--------------9---|--------|
G|-------------|------------------------------|--------------------------------|--------|
D|-------------|------------------------------|--------------------------------|--------|
A|-------------|------------------------------|--------------------------------|--------|
E|-------------|------------------------------|--------------------------------|--------|


E|-7------|-7-----7---5---4---2---|-0---2---4---5---7--------12--|-12--11--------------------------|
B|--------|-----------------------|------------------------------|---------12--10--9---7-------7---|
G|--------|-----------------------|------------------------------|-------------------------9-------|
D|--------|-----------------------|------------------------------|---------------------------------|
A|--------|-----------------------|------------------------------|---------------------------------|
E|--------|-----------------------|------------------------------|---------------------------------|


E|-0------|-2------|-3------|-3------|-----------------|---------------------|-----------------|
B|--------|--------|--------|--------|-----------------|---------------------|-----------------|
G|--------|--------|--------|--------|-----------------|---------------------|-----------------|
D|--------|--------|--------|--------|-----------------|---------------------|-----------------|
A|--------|--------|--------|--------|-2----4-----2----|------2--------------|-2----4-----2----|
E|--------|--------|--------|--------|-----------------|-2---------0----3----|-----------------|


E|---------------------|-----------------|----------------0----|---------------------|
B|---------------------|-----------------|-----------4---------|------2---------3----|
G|---------------------|-----------------|------1--------------|---------------------|
D|---------------------|------------2----|-4-------------------|-4---------4---------|
A|---------------------|-2----4----------|---------------------|---------------------|
E|-2----0----2----3----|-----------------|---------------------|---------------------|


E|----------------2----|------------------------------|------------------------------|
B|------4--------------|------------------------------|------------------------------|
G|-1---------1---------|------------------------------|------------------------------|
D|---------------------|------------------------------|-----------------2------------|
A|---------------------|-----2---4--------2---4---4---|-----2---4---2--------2---4---|
E|---------------------|------------------------------|------------------------------|


E|------------------------------|------------------------------|---------------------------------|
B|------------------------------|------------------------------|---------------------------------|
G|------------------------------|------------------------------|---------------------------------|
D|------------------------------|------------------------------|---------------------------------|
A|-4--------2---4---4-------2---|-4---2--------2---4---4-------|-----2---4---4-------2---4---2---|
E|------------------------------|---------3--------------------|---------------------------------|


E|---------------------------|------------------------------|--------|-------------|
B|---------------------------|------------------------------|--------|-------------|
G|---------------------------|------------------------------|--------|-------------|
D|-2-------------------------|-------------2------------2---|-2------|-------4-----|
A|------2---4---4--------2---|-4---2---4---2----2---4---2---|-2------|-4-----2-----|
E|---------------------------|------------------------------|--------|-4-----------|


E|--------|-------------------------------------------------|----------------|-------------------------------|
B|--------|-------------------------------------------------|----------------|-------------------------------|
G|--------|-------------------------------------------------|----------------|-------------------------------|
D|-0------|-------------------2-----2-----2--4--2--4--2-----|----------------|-------2-----4--2-----4--------|
A|-5------|-4-----2--4--2--4-----4-----4-----------------2--|-4--------------|----------4--------4-----2--4--|
E|-3------|----4--------------------------------------------|----------------|-------------------------------|


E|-------------------------------------------------|-----------------------------------|
B|-------------------------------------------------|-----------------------------------|
G|-------------------------------------------------|-----------------------------------|
D|-2-----4--2-----4--------2-----4--2-----4--------|-2-----4--2-----4-----2--4---------|
A|----4--------4-----2--4-----4--------4-----2--4--|----4--------4-----4---------------|
E|-------------------------------------------------|-----------------------------------|


E|-------------------------------|----------------|--------|-------------------------------------------------|
B|-------------------------------|----------------|--------|-------------------------------------------------|
G|-------------------------------|-1--------------|--------|-------------------------------------------------|
D|----------2--4--2-----2--4--2--|----------------|--------|-4-----2-----2-----2-----4-----2-----2-----2-----|
A|-------4-----------4-----------|----------------|--------|----4-----2-----2-----4-----4-----2-----2-----4--|
E|-------------------------------|----------------|--------|-------------------------------------------------|


E|-------------------------------------------------|-------------------------------------------------|
B|-------------------------------------------------|-------------------------------------------------|
G|-------------------------------------------------|-------------------------------------------------|
D|-4-----2-----2-----2-----4-----2-----2-----2-----|-4-----2-----2-----2-----4-----2-----2-----2-----|
A|----4-----2-----2-----4-----4-----2-----2-----4--|----4-----2-----2-----4-----4-----2-----2-----4--|
E|-------------------------------------------------|-------------------------------------------------|


E|-----------------------------------|--------------------------------|---------------------------|
B|-----------------------------------|------2---------------2---2--2--|-------------2-------------|
G|-----------------------------------|--------------------------------|---------------------------|
D|-4-----2-----2-----2-----2---------|--------------------------------|---------------------------|
A|----4-----2-----2-----4------------|----------4-------4-------------|-4---4-----------4---------|
E|-----------------------------------|--------------------------------|---------------------------|


E|--------------------|--------------------------------|------------------------------|
B|------2-------------|------2---------------2---2--2--|-------------2----------------|
G|--------------------|--------------------------------|------------------------------|
D|--------------------|--------------------------------|--------------------------4---|
A|-4--------4---------|----------4-------4-------------|-4---4-----------4--------2---|
E|--------------------|--------------------------------|----------------------4-------|


E|---------------------------|-----------------------------------|-------------------------------|
B|---------------------------|-2---2--2--------------2-----------|-------------------------------|
G|-----------6---------------|-----------------------------------|-------------------------------|
D|-4----6--------------------|-----------------------------------|-------------------------2-----|
A|-2----4--------4-------4---|-----------4---4-----------4-------|-------4-----2--4--2--4-----4--|
E|---------------------------|-----------------------------------|----------4--------------------|


E|-----------------------------------|-------------|--------|--------|-0-----------0-----------0-------|
B|-----------------------------------|-------------|--------|--------|---------------------------------|
G|-----------------------------------|-------------|--------|--------|---------------------------------|
D|-2-----2--4--2--4--2---------------|-------4-----|-0------|-0------|---------------------------------|
A|----4-----------------2--4---------|-4-----2-----|-5------|-5------|-----4---4-------4---4-------4---|
E|-----------------------------------|-4-----------|-3------|-3------|-----4---4-------4---4-------4---|


E|---------------------------------|-0-----------0-----------0-------|---------------------------------|
B|-4-----------4-----------4-------|---------------------------------|-4-----------4-----------4-------|
G|---------------------------------|---------------------------------|---------------------------------|
D|---------------------------------|---------------------------------|---------------------------------|
A|-----6---6-------6---6-------6---|-----4---4-------4---4-------4---|-----6---6-------6---6-------6---|
E|-----4---4-------4---4-------4---|-----4---4-------4---4-------4---|-----4---4-------4---4-------4---|


E|-0-----------0-----------0-------|---------------------------------|-0-----------0-----------0-------|
B|---------------------------------|-4-----------4-----------4-------|---------------------------------|
G|---------------------------------|---------------------------------|---------------------------------|
D|---------------------------------|---------------------------------|---------------------------------|
A|-----4---4-------4---4-------4---|-----6---6-------6---6-------6---|-----4---4-------4---4-------4---|
E|-----4---4-------4---4-------4---|-----4---4-------4---4-------4---|-----4---4-------4---4-------4---|


E|---------------------------------|-0-----------0-----------0-------|-0-----------0-----------0-------|
B|-4-----------4-----------4-------|---------------------------------|---------------------------------|
G|---------------------------------|---------------------------------|---------------------------------|
D|---------------------------------|---------------------------------|---------------------------------|
A|-----6---6-------6---6-------6---|-----4---4-------4---4-------4---|-----4---4-------4---4-------4---|
E|-----4---4-------4---4-------4---|-----4---4-------4---4-------4---|-----4---4-------4---4-------4---|


E|---------------------------------|---------------------------------|-------------0-----------0-------|
B|-4-----------4-----------4-------|-4-----------4-----------4-------|---------------------------------|
G|---------------------------------|---------------------------------|---------------------------------|
D|---------------------------------|---------------------------------|-2---2---2-------2---2-------2---|
A|-----6---6-------6---6-------6---|-----6---6-------6---6-------6---|-0---0---0-------0---0-------0---|
E|-----4---4-------4---4-------4---|-----4---4-------4---4-------4---|---------------------------------|


E|-0-----------0-----------0-------|-0-----------0-----------0-------|---------------------------------|
B|---------------------------------|---------------------------------|---------------------------------|
G|---------------------------------|---------------------------------|---------------------------------|
D|-----2---2-------2---2-------2---|-----2---2-------2---2-------2---|-4---4---4---4---4---4---4---4---|
A|-----0---0-------0---0-------0---|-----2---2-------2---2-------2---|-2---2---2---2---2---2---2---2---|
E|---------------------------------|---------------------------------|---------------------------------|


E|---------------------------------|---------------------------------|---------------------------------|
B|---------------------------------|---------------------------------|---------------------------------|
G|-18--18--18--18--18--18--18--18--|-18--18--18--18--18--18--18--18--|-20--20--20--20--20--20--20--20--|
D|---------------------------------|---------------------------------|---------------------------------|
A|-16--16--16--16--16--16--16--16--|-16--16--16--16--16--16--16--16--|-18--18--18--18--18--18--18--18--|
E|---------------------------------|---------------------------------|---------------------------------|


E|---------------------------------|---------------------------------|---------------------------------|
B|---------------------------------|---------------------------------|---------------------------------|
G|-20--20--20--20--20--20--20--23--|-21--21--21--21--21--21--21--21--|-21--20--20--18--18--16--16--16--|
D|---------------------------------|---------------------------------|---------------------------------|
A|-18--18--18--18--18--18--18--21--|-19--19--19--19--19--19--19--19--|-19--18--18--16--16--14--14--14--|
E|---------------------------------|---------------------------------|---------------------------------|


E|---------------------------------|---------------------------------|-----------------------------------|
B|---------------------------------|---------------------------------|-----------------------------------|
G|-23--23--23--23--23--23--23--23--|-24--24--24--24--24--24--24--24--|-----------------------------------|
D|---------------------------------|---------------------------------|-11--11--11--13-14-13--11--13--14--|
A|-21--21--21--21--21--21--21--21--|-22--22--22--22--22--22--22--22--|-----------------------------------|
E|---------------------------------|---------------------------------|-----------------------------------|


E|-----------------------------------|---------------------------------|--------------------|
B|-----------------------------------|-----14--16--17--17--16--16--12--|-12----12--12--12---|
G|-11--13-14-13--11--13--14--14--16--|-16------------------------------|--------------------|
D|-----------------------------------|---------------------------------|--------------------|
A|-----------------------------------|---------------------------------|--------------------|
E|-----------------------------------|---------------------------------|--------------------|


E|-12-11-12-11-9--11-12-14-12-14-12-11-9--11-9--7--|-9-----9-----------------9-----------------0---|
B|-------------------------------------------------|----12----12-10-9--10-12----12-10-9--7--9------|
G|-------------------------------------------------|-------------------------------------------9---|
D|-------------------------------------------------|-----------------------------------------------|
A|-------------------------------------------------|-----------------------------------------------|
E|-------------------------------------------------|-----------------------------------------------|


E|------------------------------|-9---11--12--14----14--|---------------------------------|
B|--------------10--9---10--12--|-----------------------|---------------------------------|
G|-9---11--9--------------------|-----------------------|-18--18--18--18--18--18--18--18--|
D|------------------------------|-----------------------|---------------------------------|
A|------------------------------|-----------------------|-16--16--16--16--16--16--16--16--|
E|------------------------------|-----------------------|---------------------------------|


E|---------------------------------|---------------------------------|---------------------------------|
B|---------------------------------|---------------------------------|---------------------------------|
G|-18--18--18--18--18--18--18--18--|-20--20--20--20--20--20--20--20--|-20--20--20--20--20--20--20--23--|
D|---------------------------------|---------------------------------|---------------------------------|
A|-16--16--16--16--16--16--16--16--|-18--18--18--18--18--18--18--18--|-18--18--18--18--18--18--18--21--|
E|---------------------------------|---------------------------------|---------------------------------|


E|---------------------------------|---------------------------------|---------------------------------|
B|---------------------------------|---------------------------------|---------------------------------|
G|-21--21--21--21--21--21--21--21--|-21--20--20--18--18--16--16--16--|-23--23--23--23--23--23--23--23--|
D|---------------------------------|---------------------------------|---------------------------------|
A|-19--19--19--19--19--19--19--19--|-19--18--18--16--16--14--14--14--|-21--21--21--21--21--21--21--21--|
E|---------------------------------|---------------------------------|---------------------------------|


E|--------|--------|--------|--------|--------|--------|--------|------------------------------|
B|--------|--------|--------|--------|--------|--------|--------|-----0-----------0--------0---|
G|-24-----|--------|--------|--------|--------|--------|--------|------------------------------|
D|--------|--------|--------|--------|--------|--------|--------|-2-----------2----------------|
A|-22-----|--------|--------|--------|--------|--------|--------|------------------------------|
E|--------|--------|--------|--------|--------|--------|--------|------------------------------|


E|-----------------------|-----------------|-----------------|-----------------|-----------------|
B|-----0-------0---2-----|-0-----0---------|-----------------|-0-----0---------|-----------0-----|
G|-----------------------|-----------------|-----------------|-----------------|-----------------|
D|-----------------------|------------2----|-1----2-----2----|------------2----|-1----2----------|
A|-----------------------|-----------------|-----------------|-----------------|-----------------|
E|-----------------------|-----------------|-----------------|-----------------|-----------------|


E|------------------------------|-----------------------|------------------------------|
B|-----0-----------0--------0---|-----0-------0---2-----|-----0-----------0--------0---|
G|------------------------------|-----------------------|------------------------------|
D|-2-----------2----------------|-----------------------|-2-----------2----------------|
A|------------------------------|-----------------------|------------------------------|
E|------------------------------|-----------------------|------------------------------|


E|-----------------------|-----------------|-----------------|-----------------|-----------------|
B|-----0-------0---2-----|-0-----0---------|-----------------|-0-----0---------|-----------0-----|
G|-----------------------|-----------------|-----------------|-----------------|-----------------|
D|-----------------------|------------2----|-1----2-----2----|------------2----|-1----2----------|
A|-----------------------|-----------------|-----------------|-----------------|-----------------|
E|-----------------------|-----------------|-----------------|-----------------|-----------------|


E|--------------------|--------|--------|--------|--------|
B|-0----0-------------|--------|--------|--------|--------|
G|--------------------|--------|--------|--------|--------|
D|--------------------|--------|--------|--------|--------|
A|--------------------|--------|--------|--------|--------|
E|--------------------|--------|--------|--------|--------|





Track 3: Lead Guitar

E|--------|--------------------|---------------------------------|------------------------------|
B|--------|--------------------|---------------------------------|------------------------------|
G|--------|----------------1---|-1---1---1---1---1---1---1---1---|-1---1---1---1---1---2----1---|
D|--------|----------------2---|-2---2---2---2---2---2---2---2---|-2---2---2---2---2---2----2---|
A|--------|--------------------|---------------------------------|------------------------------|
E|--------|--------------------|---------------------------------|------------------------------|


E|---------------------------------|------------------------------|---------2-------------------4--5--|
B|---------------------------------|------------------------------|-----------------5-------4---------|
G|-1---1---1---1---1---1---1---1---|-1---1---1---1---1---2--------|-----4-------4-------4-------------|
D|-2---2---2---2---2---2---2---2---|-2---2---2---2---2---2----2---|-2---------------------------------|
A|---------------------------------|------------------------------|-----------------------------------|
E|---------------------------------|------------------------------|-----------------------------------|


E|-7---4---7---4---5---4-----------|---------2-----------------------|-----------------0---2---4-------|
B|-------------------------5-------|-----------------5-------4---0---|-5---4---0---4-------------------|
G|-----------------------------4---|-4---4-------4-------4-------4---|-----------------------------1---|
D|---------------------------------|---------------------------------|-----------------------------2---|
A|---------------------------------|---------------------------------|---------------------------------|
E|---------------------------------|---------------------------------|---------------------------------|


E|---------------------------------|------------------------------|-----------------------------4--5--|
B|---------------------------------|------------------------------|-----------------------------------|
G|-1---1---1---1---1---1---1---1---|-1---1---1---1---1---2----1---|-1---1---1---1---1---1---1---------|
D|-2---2---2---2---2---2---2---2---|-2---2---2---2---2---2----2---|-2---2---2---2---2---2---2---------|
A|---------------------------------|------------------------------|-----------------------------------|
E|---------------------------------|------------------------------|-----------------------------------|


E|-7---4--5--4---5---4---------------|---------2-------0-----------4---|-------------------------------------2---0---|
B|-----------------------5---4-------|-----------------5---0---4-------|----------------------0-----0--2--4----------|
G|-------------------------------4---|-4---4-------4-------4-----------|----------1-----1--2-----2-------------------|
D|-----------------------------------|---------------------------------|-1--2--4-----4-------------------------------|
A|-----------------------------------|---------------------------------|---------------------------------------------|
E|-----------------------------------|---------------------------------|---------------------------------------------|


E|-0-------0-------0-------0-------|-----------------2-------0-------|-4-----------|
B|-----0-------0-------0-------0---|-4-------4-----------0-------0---|-------------|
G|---------------------------------|-----4-------4-------------------|-------------|
D|---------------------------------|---------------------------------|-------------|
A|---------------------------------|---------------------------------|-------------|
E|---------------------------------|---------------------------------|-------------|


E|--------|--------|--------|---------------------|------------------------|---------------------|
B|--------|--------|--------|---------------------|------------------------|---------------------|
G|--------|--------|--------|---------------------|------------------------|---------------------|
D|--------|--------|--------|-2----2----2----2----|-2----2----2----2---1---|-2----2----2----2----|
A|--------|--------|--------|-2----2----2----2----|-2----2----2----2---2---|-2----2----2----2----|
E|--------|--------|--------|---------------------|------------------------|---------------------|


E|---------------------|--------------------|--------|--------|--------|---------------------|
B|---------------------|--------------------|--------|--------|--------|---------------------|
G|---------------------|-2-----2------------|--------|--------|--------|---------------------|
D|-2----2----2----2----|-2-----2------------|--------|--------|--------|-2----2----2----2----|
A|-2----2----2----2----|-0-----0------------|--------|--------|--------|-2----2----2----2----|
E|---------------------|--------------------|--------|--------|--------|---------------------|


E|------------------------|---------------------|---------------------|------------------------------|
B|------------------------|---------------------|---------------------|------------------------------|
G|------------------------|---------------------|---------------------|------------------------------|
D|-2----2----2----2---1---|-2----2----2----2----|-2----2----2----2----|-----------------2------------|
A|-2----2----2----2---2---|-2----2----2----2----|-2----2----2----2----|-4---4---2---4-------4----4---|
E|------------------------|---------------------|---------------------|------------------------------|


E|------------------------------|------------------------------|------------------------------|
B|------------------------------|------------------------------|------------------------------|
G|------------------------------|------------------------------|------------------------------|
D|-----------------2------------|------------------------------|------------------------------|
A|-4---4---2---4-------4----4---|-----------------2------------|-----------------2------------|
E|------------------------------|-4---4---2---4-------4----4---|-4---4---2---4-------4----4---|


E|---------------------------------|---------------------------|--------|-------------|
B|---------------------------------|---------------------------|--------|-------------|
G|---------------------------------|---------------------------|--------|-------------|
D|---------------------------------|---------------------------|-2------|-1-----------|
A|-0---0---0-------0-------0---0---|-0-------0-------0---0-----|-2------|-3-----3-----|
E|---------------------------------|---------------------------|--------|-------4-----|


E|-------------------------------------------------|-------------------------------------------------|
B|-------------------------------------0---2---4---|-------------------------------------0---2---4---|
G|---------------------1-------1---2---------------|---------------------1-------1---2---------------|
D|-1---2---4---2---4-------4-----------------------|-1---2---4---2---4-------4-----------------------|
A|-------------------------------------------------|-------------------------------------------------|
E|-------------------------------------------------|-------------------------------------------------|


E|-------------------------------------------------|-------------------------------------------------|
B|---------------------------------------------0---|---------------------------------------------0---|
G|-------------------------------------1---2-------|-------------------------------------1---2-------|
D|---------1-------1---2---1---2---4---------------|---------1-------1---2---1---2---4---------------|
A|-2---4-------4-----------------------------------|-2---4-------4-----------------------------------|
E|-------------------------------------------------|-------------------------------------------------|


E|---------------------|---------------------|-------------------------------------------------|
B|---------------------|---------------------|-0-----------------------------------------------|
G|------2---------2----|------3---------3----|----2--1-----2--1--------1-----------------------|
D|---------------------|---------------------|----------4--------4--2-----4--2--1--4--2--1-----|
A|-0---------0---------|-1---------1---------|----------------------------------------------4--|
E|---------------------|---------------------|-------------------------------------------------|


E|-------------|---------------------------------|---------------------------------|
B|-------------|---------------------------------|---------------------------------|
G|-------------|---------------------------------|---------------------------------|
D|-------------|---------------------------------|---------------------------------|
A|-2-----------|-4-------4-------4-------4-------|-4-------4-------4-------4---6---|
E|-------------|-4-------4-------4-------4-------|-4-------4-------4-------4---4---|


E|-----------------------|-----------------------|--------|--------|-0----2----0----2----|
B|-----------------------|-----------------------|--------|--------|---------------------|
G|-----------------------|-----------------------|--------|--------|---------------------|
D|-----------------------|-----------------------|--------|--------|---------------------|
A|-6---6---6---------6---|-6---6---6---------7---|-7------|-7------|---------------------|
E|-4---4---4---------4---|-4---4---4---------5---|-5------|-5------|---------------------|


E|-0---------0---------|--------|--------|--------|--------|--------|--------|--------|
B|------4---------4----|--------|--------|--------|--------|--------|--------|--------|
G|---------------------|--------|--------|--------|--------|-2------|-2------|-4------|
D|---------------------|--------|--------|-6------|-6------|-2------|-2------|-4------|
A|---------------------|-4------|-4------|-6------|-6------|-0------|-0------|-2------|
E|---------------------|-4------|-4------|-4------|-4------|--------|--------|--------|


E|--------|------------------|------------------|------------------|---------------------|
B|--------|------------------|------------------|------------------|---------------------|
G|-5------|------------------|------------------|------------------|-----------------1---|
D|-5------|-2-----2-----2----|-2-----2-----2----|-2-----2-----2----|-2-----2-----2---2---|
A|-3------|-4-----4-----4----|-4-----4-----4----|-4-----4-----4----|-4-----4-----4---2---|
E|--------|-4-----4-----4----|-4-----4-----4----|-4-----4-----4----|-4-----4-----4-------|


E|---------------------------------|------------------------------|-----------------------------4--5--|
B|---------------------------------|------------------------------|-----------------------------------|
G|-1---1---1---1---1---1---1---1---|-1---1---1---1---1---2----1---|-1---1---1---1---1---1---1---------|
D|-2---2---2---2---2---2---2---2---|-2---2---2---2---2---2----2---|-2---2---2---2---2---2---2---------|
A|-2-------------------------------|------------------------------|-----------------------------------|
E|---------------------------------|------------------------------|-----------------------------------|


E|-7---4--5--4---5---4---------------|-0------|-0------|-0------|-0------0-------|
B|-----------------------5---4-------|--------|--------|--------|----------------|
G|-------------------------------4---|--------|--------|--------|----------------|
D|-----------------------------------|--------|--------|--------|----------------|
A|-----------------------------------|--------|--------|--------|----------------|
E|-----------------------------------|--------|--------|--------|----------------|


E|--------|--------|--------|--------|--------|--------|--------|--------|------0--------------|
B|--------|--------|--------|--------|--------|--------|--------|--------|-----------0---------|
G|--------|--------|--------|--------|--------|--------|--------|--------|---------------------|
D|--------|--------|--------|--------|--------|--------|--------|--------|---------------2-----|
A|--------|--------|--------|--------|-0------|-0------|-0------|-0------|---------------------|
E|--------|--------|--------|--------|--------|--------|--------|--------|---------------------|


E|----------0-------------|-0----7----0---12----|--------|------------------------------|
B|--------------4---0-----|---------------------|--------|------------------------------|
G|------------------------|---------------------|--------|------------------------------|
D|-2----2-----------------|---------------------|--------|-----------------2------------|
A|------------------------|---------------------|--------|-4---4---2---4-------4----4---|
E|------------------------|---------------------|--------|------------------------------|


E|------------------------------|------------------------------|------------------------------|
B|------------------------------|------------------------------|------------------------------|
G|------------------------------|------------------------------|------------------------------|
D|-----------------2------------|------------------------------|------------------------------|
A|-4---4---2---4-------4----4---|-----------------2------------|-----------------2------------|
E|------------------------------|-4---4---2---4-------4----4---|-4---4---2---4-------4----4---|


E|---------------------------------|---------------------------|--------|-------------|
B|---------------------------------|---------------------------|--------|-------------|
G|---------------------------------|---------------------------|--------|-------------|
D|---------------------------------|---------------------------|-2------|-1-----------|
A|-0---0---0-------0-------0---0---|-0-------0-------0---0-----|-2------|-3-----3-----|
E|---------------------------------|---------------------------|--------|-------4-----|


E|-------------------------------------------------|-------------------------------------------------|
B|-------------------------------------0---2---4---|-------------------------------------0---2---4---|
G|---------------------1-------1---2---------------|---------------------1-------1---2---------------|
D|-1---2---4---2---4-------4-----------------------|-1---2---4---2---4-------4-----------------------|
A|-------------------------------------------------|-------------------------------------------------|
E|-------------------------------------------------|-------------------------------------------------|


E|-------------------------------------------------|-------------------------------------------------|
B|---------------------------------------------0---|---------------------------------------------0---|
G|-------------------------------------1---2-------|-------------------------------------1---2-------|
D|---------1-------1---2---1---2---4---------------|---------1-------1---2---1---2---4---------------|
A|-2---4-------4-----------------------------------|-2---4-------4-----------------------------------|
E|-------------------------------------------------|-------------------------------------------------|


E|---------------------|---------------------|-------------------------------------------------|
B|---------------------|---------------------|-0-----------------------------------------------|
G|------2---------2----|------3---------3----|----2--1-----2--1--------1-----------------------|
D|---------------------|---------------------|----------4--------4--2-----4--2--1--4--2--1-----|
A|-0---------0---------|-1---------1---------|----------------------------------------------4--|
E|---------------------|---------------------|-------------------------------------------------|


E|-------------|--------|--------|-----------------0---|-2----2---0---2-----|-2------2---0---|
B|-------------|--------|--------|-------0----2--------|--------------------|----------------|
G|-------------|--------|--------|---------------------|--------------------|----------------|
D|-------------|--------|--------|---------------------|--------------------|----------------|
A|-2-----------|--------|--------|---------------------|--------------------|----------------|
E|-------------|--------|--------|---------------------|--------------------|----------------|


E|-0-----------|-----7----9---7-----------7---|-7---9---7-------7----9--7------|-7------|
B|-------------|------------------9-----------|-------------9--------------9---|--------|
G|-------------|------------------------------|--------------------------------|--------|
D|-------------|------------------------------|--------------------------------|--------|
A|-------------|------------------------------|--------------------------------|--------|
E|-------------|------------------------------|--------------------------------|--------|


E|-7------|-7-----7---5---4---2---|-0---2---4---5---7--------12--|-12--11--------------------------|
B|--------|-----------------------|------------------------------|---------12--10--9---7-------7---|
G|--------|-----------------------|------------------------------|-------------------------9-------|
D|--------|-----------------------|------------------------------|---------------------------------|
A|--------|-----------------------|------------------------------|---------------------------------|
E|--------|-----------------------|------------------------------|---------------------------------|


E|-0------|-2------|-3------|-3------|-----------------|---------------------|-----------------|
B|--------|--------|--------|--------|-----------------|---------------------|-----------------|
G|--------|--------|--------|--------|-----------------|---------------------|-----------------|
D|--------|--------|--------|--------|-----------------|---------------------|-----------------|
A|--------|--------|--------|--------|-2----4-----2----|------2--------------|-2----4-----2----|
E|--------|--------|--------|--------|-----------------|-2---------0----3----|-----------------|


E|---------------------|-----------------|----------------0----|---------------------|
B|---------------------|-----------------|-----------4---------|------2---------3----|
G|---------------------|-----------------|------1--------------|---------------------|
D|---------------------|------------2----|-4-------------------|-4---------4---------|
A|---------------------|-2----4----------|---------------------|---------------------|
E|-2----0----2----3----|-----------------|---------------------|---------------------|


E|----------------2----|------------------------------|------------------------------|
B|------4--------------|------------------------------|------------------------------|
G|-1---------1---------|------------------------------|------------------------------|
D|---------------------|------------------------------|-----------------2------------|
A|---------------------|-----2---4--------2---4---4---|-----2---4---2--------2---4---|
E|---------------------|------------------------------|------------------------------|


E|------------------------------|------------------------------|---------------------------------|
B|------------------------------|------------------------------|---------------------------------|
G|------------------------------|------------------------------|---------------------------------|
D|------------------------------|------------------------------|---------------------------------|
A|-4--------2---4---4-------2---|-4---2--------2---4---4-------|-----2---4---4-------2---4---2---|
E|------------------------------|---------3--------------------|---------------------------------|


E|---------------------------|------------------------------|--------|-------------|
B|---------------------------|------------------------------|--------|-------------|
G|---------------------------|------------------------------|--------|-------------|
D|-2-------------------------|-------------2------------2---|-2------|-------4-----|
A|------2---4---4--------2---|-4---2---4---2----2---4---2---|-2------|-4-----2-----|
E|---------------------------|------------------------------|--------|-4-----------|


E|--------|-------------------------------------------------|----------------|-------------------------------|
B|--------|-------------------------------------------------|----------------|-------------------------------|
G|--------|-------------------------------------------------|----------------|-------------------------------|
D|-0------|-------------------2-----2-----2--4--2--4--2-----|----------------|-------2-----4--2-----4--------|
A|-5------|-4-----2--4--2--4-----4-----4-----------------2--|-4--------------|----------4--------4-----2--4--|
E|-3------|----4--------------------------------------------|----------------|-------------------------------|


E|-------------------------------------------------|-----------------------------------|
B|-------------------------------------------------|-----------------------------------|
G|-------------------------------------------------|-----------------------------------|
D|-2-----4--2-----4--------2-----4--2-----4--------|-2-----4--2-----4-----2--4---------|
A|----4--------4-----2--4-----4--------4-----2--4--|----4--------4-----4---------------|
E|-------------------------------------------------|-----------------------------------|


E|-------------------------------|----------------|--------|-------------------------------------------------|
B|-------------------------------|----------------|--------|-------------------------------------------------|
G|-------------------------------|-1--------------|--------|-------------------------------------------------|
D|----------2--4--2-----2--4--2--|----------------|--------|-4-----2-----2-----2-----4-----2-----2-----2-----|
A|-------4-----------4-----------|----------------|--------|----4-----2-----2-----4-----4-----2-----2-----4--|
E|-------------------------------|----------------|--------|-------------------------------------------------|


E|-------------------------------------------------|-------------------------------------------------|
B|-------------------------------------------------|-------------------------------------------------|
G|-------------------------------------------------|-------------------------------------------------|
D|-4-----2-----2-----2-----4-----2-----2-----2-----|-4-----2-----2-----2-----4-----2-----2-----2-----|
A|----4-----2-----2-----4-----4-----2-----2-----4--|----4-----2-----2-----4-----4-----2-----2-----4--|
E|-------------------------------------------------|-------------------------------------------------|


E|-----------------------------------|--------------------------------|---------------------------|
B|-----------------------------------|------2---------------2---2--2--|-------------2-------------|
G|-----------------------------------|--------------------------------|---------------------------|
D|-4-----2-----2-----2-----2---------|--------------------------------|---------------------------|
A|----4-----2-----2-----4------------|----------4-------4-------------|-4---4-----------4---------|
E|-----------------------------------|--------------------------------|---------------------------|


E|--------------------|--------------------------------|------------------------------|
B|------2-------------|------2---------------2---2--2--|-------------2----------------|
G|--------------------|--------------------------------|------------------------------|
D|--------------------|--------------------------------|--------------------------4---|
A|-4--------4---------|----------4-------4-------------|-4---4-----------4--------2---|
E|--------------------|--------------------------------|----------------------4-------|


E|---------------------------|-----------------------------------|-------------------------------|
B|---------------------------|-2---2--2--------------2-----------|-------------------------------|
G|-----------6---------------|-----------------------------------|-------------------------------|
D|-4----6--------------------|-----------------------------------|-------------------------2-----|
A|-2----4--------4-------4---|-----------4---4-----------4-------|-------4-----2--4--2--4-----4--|
E|---------------------------|-----------------------------------|----------4--------------------|


E|-----------------------------------|-------------|--------|--------|-0-----------0-----------0-------|
B|-----------------------------------|-------------|--------|--------|---------------------------------|
G|-----------------------------------|-------------|--------|--------|---------------------------------|
D|-2-----2--4--2--4--2---------------|-------4-----|-0------|-0------|---------------------------------|
A|----4-----------------2--4---------|-4-----2-----|-5------|-5------|-----4---4-------4---4-------4---|
E|-----------------------------------|-4-----------|-3------|-3------|-----4---4-------4---4-------4---|


E|---------------------------------|-0-----------0-----------0-------|---------------------------------|
B|-4-----------4-----------4-------|---------------------------------|-4-----------4-----------4-------|
G|---------------------------------|---------------------------------|---------------------------------|
D|---------------------------------|---------------------------------|---------------------------------|
A|-----6---6-------6---6-------6---|-----4---4-------4---4-------4---|-----6---6-------6---6-------6---|
E|-----4---4-------4---4-------4---|-----4---4-------4---4-------4---|-----4---4-------4---4-------4---|


E|-0-----------0-----------0-------|---------------------------------|-0-----------0-----------0-------|
B|---------------------------------|-4-----------4-----------4-------|---------------------------------|
G|---------------------------------|---------------------------------|---------------------------------|
D|---------------------------------|---------------------------------|---------------------------------|
A|-----4---4-------4---4-------4---|-----6---6-------6---6-------6---|-----4---4-------4---4-------4---|
E|-----4---4-------4---4-------4---|-----4---4-------4---4-------4---|-----4---4-------4---4-------4---|


E|---------------------------------|-0-----------0-----------0-------|-0-----------0-----------0-------|
B|-4-----------4-----------4-------|---------------------------------|---------------------------------|
G|---------------------------------|---------------------------------|---------------------------------|
D|---------------------------------|---------------------------------|---------------------------------|
A|-----6---6-------6---6-------6---|-----4---4-------4---4-------4---|-----4---4-------4---4-------4---|
E|-----4---4-------4---4-------4---|-----4---4-------4---4-------4---|-----4---4-------4---4-------4---|


E|---------------------------------|---------------------------------|-------------0-----------0-------|
B|-4-----------4-----------4-------|-4-----------4-----------4-------|---------------------------------|
G|---------------------------------|---------------------------------|---------------------------------|
D|---------------------------------|---------------------------------|-2---2---2-------2---2-------2---|
A|-----6---6-------6---6-------6---|-----6---6-------6---6-------6---|-0---0---0-------0---0-------0---|
E|-----4---4-------4---4-------4---|-----4---4-------4---4-------4---|---------------------------------|


E|-0-----------0-----------0-------|-0-----------0-----------0-------|---------------------------------|
B|---------------------------------|---------------------------------|---------------------------------|
G|---------------------------------|---------------------------------|---------------------------------|
D|-----2---2-------2---2-------2---|-----2---2-------2---2-------2---|-4---4---4---4---4---4---4---4---|
A|-----0---0-------0---0-------0---|-----2---2-------2---2-------2---|-2---2---2---2---2---2---2---2---|
E|---------------------------------|---------------------------------|---------------------------------|


E|---------------------------------|---------------------------------|---------------------------------|
B|---------------------------------|---------------------------------|---------------------------------|
G|-18--18--18--18--18--18--18--18--|-18--18--18--18--18--18--18--18--|-20--20--20--20--20--20--20--20--|
D|---------------------------------|---------------------------------|---------------------------------|
A|-16--16--16--16--16--16--16--16--|-16--16--16--16--16--16--16--16--|-18--18--18--18--18--18--18--18--|
E|---------------------------------|---------------------------------|---------------------------------|


E|---------------------------------|---------------------------------|---------------------------------|
B|---------------------------------|---------------------------------|---------------------------------|
G|-20--20--20--20--20--20--20--23--|-21--21--21--21--21--21--21--21--|-21--20--20--18--18--16--16--16--|
D|---------------------------------|---------------------------------|---------------------------------|
A|-18--18--18--18--18--18--18--21--|-19--19--19--19--19--19--19--19--|-19--18--18--16--16--14--14--14--|
E|---------------------------------|---------------------------------|---------------------------------|


E|---------------------------------|---------------------------------|-----------------------------------|
B|---------------------------------|---------------------------------|-----------------------------------|
G|-23--23--23--23--23--23--23--23--|-24--24--24--24--24--24--24--24--|-----------------------------------|
D|---------------------------------|---------------------------------|-11--11--11--13-14-13--11--13--14--|
A|-21--21--21--21--21--21--21--21--|-22--22--22--22--22--22--22--22--|-----------------------------------|
E|---------------------------------|---------------------------------|-----------------------------------|


E|-----------------------------------|---------------------------------|--------------------|
B|-----------------------------------|-----14--16--17--17--16--16--12--|-12----12--12--12---|
G|-11--13-14-13--11--13--14--14--16--|-16------------------------------|--------------------|
D|-----------------------------------|---------------------------------|--------------------|
A|-----------------------------------|---------------------------------|--------------------|
E|-----------------------------------|---------------------------------|--------------------|


E|-12-11-12-11-9--11-12-14-12-14-12-11-9--11-9--7--|-9-----9-----------------9-----------------0---|
B|-------------------------------------------------|----12----12-10-9--10-12----12-10-9--7--9------|
G|-------------------------------------------------|-------------------------------------------9---|
D|-------------------------------------------------|-----------------------------------------------|
A|-------------------------------------------------|-----------------------------------------------|
E|-------------------------------------------------|-----------------------------------------------|


E|------------------------------|-9---11--12--14----14--|---------------------------------|
B|--------------10--9---10--12--|-----------------------|---------------------------------|
G|-9---11--9--------------------|-----------------------|-18--18--18--18--18--18--18--18--|
D|------------------------------|-----------------------|---------------------------------|
A|------------------------------|-----------------------|-16--16--16--16--16--16--16--16--|
E|------------------------------|-----------------------|---------------------------------|


E|---------------------------------|---------------------------------|---------------------------------|
B|---------------------------------|---------------------------------|---------------------------------|
G|-18--18--18--18--18--18--18--18--|-20--20--20--20--20--20--20--20--|-20--20--20--20--20--20--20--23--|
D|---------------------------------|---------------------------------|---------------------------------|
A|-16--16--16--16--16--16--16--16--|-18--18--18--18--18--18--18--18--|-18--18--18--18--18--18--18--21--|
E|---------------------------------|---------------------------------|---------------------------------|


E|---------------------------------|---------------------------------|---------------------------------|
B|---------------------------------|---------------------------------|---------------------------------|
G|-21--21--21--21--21--21--21--21--|-21--20--20--18--18--16--16--16--|-23--23--23--23--23--23--23--23--|
D|---------------------------------|---------------------------------|---------------------------------|
A|-19--19--19--19--19--19--19--19--|-19--18--18--16--16--14--14--14--|-21--21--21--21--21--21--21--21--|
E|---------------------------------|---------------------------------|---------------------------------|


E|--------|--------|--------|--------|--------|--------|--------|------------------------------|
B|--------|--------|--------|--------|--------|--------|--------|-----0-----------0--------0---|
G|-24-----|--------|--------|--------|--------|--------|--------|------------------------------|
D|--------|--------|--------|--------|--------|--------|--------|-2-----------2----------------|
A|-22-----|--------|--------|--------|--------|--------|--------|------------------------------|
E|--------|--------|--------|--------|--------|--------|--------|------------------------------|


E|-----------------------|-----------------|-----------------|-----------------|-----------------|
B|-----0-------0---2-----|-0-----0---------|-----------------|-0-----0---------|-----------0-----|
G|-----------------------|-----------------|-----------------|-----------------|-----------------|
D|-----------------------|------------2----|-1----2-----2----|------------2----|-1----2----------|
A|-----------------------|-----------------|-----------------|-----------------|-----------------|
E|-----------------------|-----------------|-----------------|-----------------|-----------------|


E|------------------------------|-----------------------|------------------------------|
B|-----0-----------0--------0---|-----0-------0---2-----|-----0-----------0--------0---|
G|------------------------------|-----------------------|------------------------------|
D|-2-----------2----------------|-----------------------|-2-----------2----------------|
A|------------------------------|-----------------------|------------------------------|
E|------------------------------|-----------------------|------------------------------|


E|-----------------------|-----------------|-----------------|-----------------|-----------------|
B|-----0-------0---2-----|-0-----0---------|-----------------|-0-----0---------|-----------0-----|
G|-----------------------|-----------------|-----------------|-----------------|-----------------|
D|-----------------------|------------2----|-1----2-----2----|------------2----|-1----2----------|
A|-----------------------|-----------------|-----------------|-----------------|-----------------|
E|-----------------------|-----------------|-----------------|-----------------|-----------------|


E|--------------------|--------|--------|--------|--------|
B|-0----0-------------|--------|--------|--------|--------|
G|--------------------|--------|--------|--------|--------|
D|--------------------|--------|--------|--------|--------|
A|--------------------|--------|--------|--------|--------|
E|--------------------|--------|--------|--------|--------|





Track 4: Rhythm Guitar

E|--------|----------------4---|-4---4---4---4---4---4---4---4---|-4---4---4---4---4---5----4---|
B|--------|----------------5---|-5---5---5---5---5---5---5---5---|-5---5---5---5---5---5----5---|
G|--------|--------------------|---------------------------------|------------------------------|
D|--------|--------------------|---------------------------------|------------------------------|
A|--------|--------------------|---------------------------------|------------------------------|
E|--------|--------------------|---------------------------------|------------------------------|


E|-4---4---4---4---4---4---4---4---|-4---4---4---4---4---5--------|--------|----------------|
B|-5---5---5---5---5---5---5---5---|-5---5---5---5---5---5--------|--------|----------------|
G|---------------------------------|------------------------------|--------|----------------|
D|---------------------------------|--------------------------2---|-2------|-2------2---2---|
A|---------------------------------|--------------------------2---|-2------|-2------2---2---|
E|---------------------------------|------------------------------|--------|----------------|


E|--------|------------7---|-7---7---7---7---7---7---7---7---|-7---7---7---7---7---9----7---|
B|--------|------------9---|-9---9---9---9---9---9---9---9---|-9---9---9---9---9---10---9---|
G|--------|----------------|---------------------------------|------------------------------|
D|-2------|-2------2-------|---------------------------------|------------------------------|
A|-2------|-2------2-------|---------------------------------|------------------------------|
E|--------|----------------|---------------------------------|------------------------------|


E|-7---7---7---7---7---7---7---7---|-7---7---7---7---7---9--------|----------------|
B|-9---9---9---9---9---9---9---9---|-9---9---9---9---9---10-------|----------------|
G|---------------------------------|------------------------------|----------------|
D|---------------------------------|--------------------------2---|-2------2---2---|
A|---------------------------------|--------------------------2---|-2------2---2---|
E|---------------------------------|------------------------------|----------------|


E|------------------------------|----------------|---------------------------------|
B|-----9---9---9---9---10-------|----------------|-----9---9---9---9---9---9---9---|
G|-----9---9---9---9---9--------|----------------|-----9---9---9---9---9---9---9---|
D|-2------------------------2---|-2------2---2---|-2-------------------------------|
A|-2------------------------2---|-2------2---2---|-2-------------------------------|
E|------------------------------|----------------|---------------------------------|


E|---------------------------------|---------------------------------|---------------------------------|
B|-----------------0---------------|-----------------0---------------|-----------------0---------------|
G|-2-------2-----------2-------2---|---------2-----------2-------2---|---------2-----------2-------2---|
D|-2---2-------2-------------------|-----2-------2-------------------|-----2-------2-------------------|
A|---------------------------------|---------------------------------|---------------------------------|
E|---------------------------------|---------------------------------|---------------------------------|


E|-----------------------------0---|--------|----------------0---|----------------0---|
B|-----------------0-----------0---|--------|----------------0---|----------------0---|
G|---------2-----------2-------1---|--------|----------------1---|----------------1---|
D|-----2-------2---------------2---|--------|----------------2---|----------------2---|
A|---------------------------------|--------|--------------------|--------------------|
E|---------------------------------|--------|--------------------|--------------------|


E|-------0------------|---------------------------------|---------------------------------|
B|-------0------------|-----------------0---------------|-----------------0---------------|
G|-------1------------|---------2-----------2-------2---|---------2-----------2-------1---|
D|-------2------------|-----2-------2-------------------|-----2-------2-------------------|
A|--------------------|---------------------------------|---------------------------------|
E|--------------------|---------------------------------|---------------------------------|


E|-----------------12--------|---------------------------------|--------|-------------|
B|---------------------------|-0-------------------------------|--------|-------------|
G|---------2-----------------|---------------------------------|--------|-------------|
D|-----2-------2-------------|---------------------------------|--------|-------------|
A|---------------------------|---------11--12----------9---7---|-7------|-7-----------|
E|-----------------------12--|-----12----------9---7-----------|--------|-------------|


E|-----0---0---0---0---2---2---2---|-2---4---4---4---5---7-----|-----------------0------------|
B|-4-------------------------------|---------------------------|---------0--------------------|
G|---------------------------------|---------------------------|-6---6-------6-------6----6---|
D|---------------------------------|---------------------------|------------------------------|
A|---------------------------------|---------------------------|------------------------------|
E|---------------------------------|---------------------------|------------------------------|


E|-----------------0------------|------------------------------|------------------------------|
B|---------0--------------------|-----------------0------------|-----------------0------------|
G|-6---6-------6-------6----6---|------------------------------|------------------------------|
D|------------------------------|-6---6---4---6-------6----6---|-6---6---4---6-------6----6---|
A|------------------------------|------------------------------|------------------------------|
E|------------------------------|------------------------------|------------------------------|


E|---------------------------------|---------------------------|-0------|-------------|
B|---------------------------------|---------------------------|--------|-1-----------|
G|---------------------------------|---------------------------|--------|-------1-----|
D|-7---7---7-------7-------7---7---|-7-------7-------7---7-----|--------|-------------|
A|---------------------------------|---------------------------|--------|-------------|
E|---------------------------------|---------------------------|--------|-------------|


E|-------------------------7-----------------------|-------------------------7-----------------------|
B|---------5---7---9---10------10--9---7-----------|---------5---7---9---10------10--9---7-----------|
G|-6---8-----------------------------------9---8---|-6---8-----------------------------------9---8---|
D|-------------------------------------------------|-------------------------------------------------|
A|-------------------------------------------------|-------------------------------------------------|
E|-------------------------------------------------|-------------------------------------------------|


E|-------------7---9---11--12--11--9---7-----------|-------------7---9---11--12--11--9---7-----------|
B|-7---9---10------------------------------10--9---|-7---9---10------------------------------10--9---|
G|-------------------------------------------------|-------------------------------------------------|
D|-------------------------------------------------|-------------------------------------------------|
A|-------------------------------------------------|-------------------------------------------------|
E|-------------------------------------------------|-------------------------------------------------|


E|------5---------5----|------6---------6----|-7--5--4--2--5--4--2--0--4--2--0-----2--0--------|
B|---------------------|---------------------|----------------------------------4--------4--2--|
G|-2---------2---------|-3---------3---------|-------------------------------------------------|
D|---------------------|---------------------|-------------------------------------------------|
A|---------------------|---------------------|-------------------------------------------------|
E|---------------------|---------------------|-------------------------------------------------|


E|-------------|-0-------0-------0-------0-------|-0-------0-------0-------0---4---|
B|-0-----------|-2-------2-------2-------2-------|-2-------2-------2-------2---4---|
G|-------------|---------------------------------|---------------------------------|
D|-------------|---------------------------------|---------------------------------|
A|-------------|---------------------------------|---------------------------------|
E|-------------|---------------------------------|---------------------------------|


E|-4---4---4---------4---|-4---4---4-------------|---------------------------------|
B|-4---4---4---------4---|-4---4---4-------------|---------------------------------|
G|-----------------------|-------------------2---|-2---2---2---2---2---2---2---2---|
D|-----------------------|-----------------------|---------------------------------|
A|-----------------------|-----------------------|---------------------------------|
E|-----------------------|-----------------------|---------------------------------|


E|---------------------------------|-0---0---0---0---0---0---0---0---|---------------------------------|
B|---------------------------------|---------------------------------|-4---4---4---4---4---4---4---4---|
G|-2---2---2---2---2---2---2---2---|---------------------------------|---------------------------------|
D|---------------------------------|---------------------------------|---------------------------------|
A|---------------------------------|---------------------------------|---------------------------------|
E|---------------------------------|---------------------------------|---------------------------------|


E|---------------------------------|---------------------------------|---------------------------------|
B|-2---2---2---2---2---2---2---2---|-2---2---2---2---2---2---2---2---|-4---4---4---4---4---4---4---4---|
G|---------------------------------|---------------------------------|---------------------------------|
D|---------------------------------|---------------------------------|---------------------------------|
A|---------------------------------|---------------------------------|---------------------------------|
E|---------------------------------|---------------------------------|---------------------------------|


E|---------------------------------|-0---0---0---0---0---0---0---0---|-0-------------------------------|
B|-4---4---4---4---4---4---4---4---|---------------------------------|-----4---4---2---2---0---0---0---|
G|---------------------------------|---------------------------------|---------------------------------|
D|---------------------------------|---------------------------------|---------------------------------|
A|---------------------------------|---------------------------------|---------------------------------|
E|---------------------------------|---------------------------------|---------------------------------|


E|-2---2---2---2---2---2---2---2---|-3------|-0---0---0---2---2---2---2---2---|-4---4---4---5---5---5---5---5---|
B|---------------------------------|--------|---------------------------------|---------------------------------|
G|---------------------------------|--------|---------------------------------|---------------------------------|
D|---------------------------------|--------|---------------------------------|---------------------------------|
A|---------------------------------|--------|---------------------------------|---------------------------------|
E|---------------------------------|--------|---------------------------------|---------------------------------|


E|-7---7---7---9---9---9---9---9---|-11--11--11--12--12--12--14--4---|-4---7---7---7---7---7---7---7---|
B|---------------------------------|-----------------------------5---|-5---9---9---9---9---9---9---9---|
G|---------------------------------|---------------------------------|---------------------------------|
D|---------------------------------|---------------------------------|---------------------------------|
A|---------------------------------|---------------------------------|---------------------------------|
E|---------------------------------|---------------------------------|---------------------------------|


E|-7---7---7---7---7---9----7---|-7---7---7---7---7---7---7---7---|-7---7---7---7---7---7---7---7---|
B|-9---9---9---9---9---10---9---|-9---9---9---9---9---9---9---9---|-9---9---9---9---9---9---9---9---|
G|------------------------------|---------------------------------|---------------------------------|
D|------------------------------|---------------------------------|---------------------------------|
A|------------------------------|---------------------------------|---------------------------------|
E|------------------------------|---------------------------------|---------------------------------|


E|-----------------------|--------|-------------0----------|-------------|-------------|
B|-----------------------|--------|------------------0-----|-0------0----|-------------|
G|-------------9-----9---|-9------|------------------------|-------------|-------------|
D|-----------------------|--------|-2-------2--------------|-------------|-2-----------|
A|-----------------------|--------|------------------------|-------------|-2-----------|
E|-12------12------------|--------|------------------------|-------------|-------------|


E|--------|--------|-----0---------0--------|-----------9----7---|-7-----7---7----5---|
B|--------|--------|----------0---------0---|--------------------|--------------------|
G|--------|--------|------------------------|-2-----2------------|--------------------|
D|--------|--------|------------------------|--------------------|--------------------|
A|--------|--------|------------------------|--------------------|--------------------|
E|--------|--------|------------------------|--------------------|--------------------|


E|-5-----5---5----4---|-4-----4---4----4---|--------|--------|--------|--------|-----------------0------------|
B|--------------------|--------------------|--------|--------|--------|--------|---------0--------------------|
G|--------------------|--------------------|--------|--------|--------|--------|-6---6-------6-------6----6---|
D|--------------------|--------------------|-2------|-2------|-2------|--------|------------------------------|
A|--------------------|--------------------|-2------|-2------|-2------|--------|------------------------------|
E|--------------------|--------------------|--------|--------|--------|--------|------------------------------|


E|-----------------0------------|------------------------------|------------------------------|
B|---------0--------------------|-----------------0------------|-----------------0------------|
G|-6---6-------6-------6----6---|------------------------------|------------------------------|
D|------------------------------|-6---6---4---6-------6----6---|-6---6---4---6-------6----6---|
A|------------------------------|------------------------------|------------------------------|
E|------------------------------|------------------------------|------------------------------|


E|---------------------------------|---------------------------|-0------|-------------|
B|---------------------------------|---------------------------|--------|-1-----------|
G|---------------------------------|---------------------------|--------|-------1-----|
D|-7---7---7-------7-------7---7---|-7-------7-------7---7-----|--------|-------------|
A|---------------------------------|---------------------------|--------|-------------|
E|---------------------------------|---------------------------|--------|-------------|


E|-------------------------7-----------------------|-------------------------7-----------------------|
B|---------5---7---9---10------10--9---7-----------|---------5---7---9---10------10--9---7-----------|
G|-6---8-----------------------------------9---8---|-6---8-----------------------------------9---8---|
D|-------------------------------------------------|-------------------------------------------------|
A|-------------------------------------------------|-------------------------------------------------|
E|-------------------------------------------------|-------------------------------------------------|


E|-------------7---9---11--12--11--9---7-----------|-------------7---9---11--12--11--9---7-----------|
B|-7---9---10------------------------------10--9---|-7---9---10------------------------------10--9---|
G|-------------------------------------------------|-------------------------------------------------|
D|-------------------------------------------------|-------------------------------------------------|
A|-------------------------------------------------|-------------------------------------------------|
E|-------------------------------------------------|-------------------------------------------------|


E|------5---------5----|------6---------6----|-7--5--4--2--5--4--2--0--4--2--0-----2--0--------|
B|---------------------|---------------------|----------------------------------4--------4--2--|
G|-2---------2---------|-3---------3---------|-------------------------------------------------|
D|---------------------|---------------------|-------------------------------------------------|
A|---------------------|---------------------|-------------------------------------------------|
E|---------------------|---------------------|-------------------------------------------------|


E|-------------|-0------|-0------|------------------------|------------------------|
B|-0-----------|-2------|-2------|------4---------4-------|------4---------4-------|
G|-------------|-1------|-1------|------4---------4-------|------4---------4-------|
D|-------------|--------|--------|------6---------6-------|------6---------6-------|
A|-------------|--------|--------|------------------------|------------------------|
E|-------------|--------|--------|------------------------|------------------------|


E|------0---------0-------|------0---------0-------|------0---------0-------|------2---------2-------|
B|------2---------2-------|------2---------2-------|------0---------0-------|------4---------4-------|
G|------2---------2-------|------2---------2-------|------1---------1-------|------4---------4-------|
D|------------------------|------------------------|------------------------|------------------------|
A|------------------------|------------------------|------------------------|------------------------|
E|------------------------|------------------------|------------------------|------------------------|


E|------0---------0-------|------0---------0-------|------------------------|------------------------|
B|------2---------2-------|------2---------2-------|------4---------4-------|------4---------4-------|
G|------1---------1-------|------1---------1-------|------4---------4-------|------4---------4-------|
D|------------------------|------------------------|------6---------6-------|------6---------6-------|
A|------------------------|------------------------|------------------------|------------------------|
E|------------------------|------------------------|------------------------|------------------------|


E|------0---------0-------|------0---------0-------|------2---------2-------|-0------|
B|------2---------2-------|------2---------2-------|------4---------4-------|-1------|
G|------2---------2-------|------2---------2-------|------4---------4-------|-0------|
D|------------------------|------------------------|------------------------|--------|
A|------------------------|------------------------|------------------------|--------|
E|------------------------|------------------------|------------------------|--------|


E|-0------|-----------------|---------------------|-----------------|---------------------|
B|-1------|-0----2-----0----|------0--------------|-0----2-----0----|---------------------|
G|-0------|-----------------|----------------0----|-----------------|----------------0----|
D|--------|-----------------|-4---------2---------|-----------------|-4----2----4---------|
A|--------|-----------------|---------------------|-----------------|---------------------|
E|--------|-----------------|---------------------|-----------------|---------------------|


E|------------0----|-----------12---11---|------0----------|-----------9-----|------------------------|
B|-0----2----------|-7----9--------------|-----------------|-12--------------|--------------------7---|
G|-----------------|---------------------|-----------11----|-----------------|------8----9------------|
D|-----------------|---------------------|-----------------|-----------------|------------------------|
A|-----------------|---------------------|-----------------|-----------------|------------------------|
E|-----------------|---------------------|-----------------|-----------------|------------------------|


E|-----------------|--------|------0--------2--------|-----3-----3--------|------0----------0---|
B|-----------------|--------|-4----------------------|--------------------|-4-------------------|
G|-------8----9----|--------|------------------------|--------------------|---------------------|
D|-----------------|--------|------------------------|--------------------|---------------------|
A|-----------------|--------|------------------------|--------------------|---------------------|
E|-----------------|--------|------------------------|--------------------|---------------------|


E|----------0-----0---|-0------|-------2-----|--------|-------------------0-----0-----0--2--0--2--0-----|
B|--------------------|--------|-2-----0-----|-3------|-2-----0--2--0--2-----2-----2-----------------0--|
G|--------------------|--------|-1-----------|-0------|----1--------------------------------------------|
D|--------------------|--------|-------------|--------|-------------------------------------------------|
A|--------------------|--------|-------------|--------|-------------------------------------------------|
E|--------------------|--------|-------------|--------|-------------------------------------------------|


E|----------------|-------0-----2--0-----2--------|-0-----2--0-----2--------0-----2--0-----2--------|
B|-2--------------|----------2--------2-----0--2--|----2--------2-----0--2-----2--------2-----0--2--|
G|----------------|-------------------------------|-------------------------------------------------|
D|----------------|-------------------------------|-------------------------------------------------|
A|----------------|-------------------------------|-------------------------------------------------|
E|----------------|-------------------------------|-------------------------------------------------|


E|-0-----2--0-----2-----0--2---------|----------0--2--0-----0--2--0--|-4--------------|
B|----2--------2-----2---------------|-------2-----------2-----------|----------------|
G|-----------------------------------|-------------------------------|----------------|
D|-----------------------------------|-------------------------------|----------------|
A|-----------------------------------|-------------------------------|----------------|
E|-----------------------------------|-------------------------------|----------------|


E|--------|-2-----0-----0-----0-----2-----0-----0-----0-----|-2-----0-----0-----0-----2-----0-----0-----0-----|
B|--------|----2-----0-----0-----2-----2-----0-----0-----2--|----2-----0-----0-----2-----2-----0-----0-----2--|
G|--------|-------------------------------------------------|-------------------------------------------------|
D|--------|-------------------------------------------------|-------------------------------------------------|
A|--------|-------------------------------------------------|-------------------------------------------------|
E|--------|-------------------------------------------------|-------------------------------------------------|


E|-2-----0-----0-----0-----2-----0-----0-----0-----|-2-----0-----0-----0-----0---------|
B|----2-----0-----0-----2-----2-----0-----0-----2--|----2-----0-----0-----2------------|
G|-------------------------------------------------|-----------------------------------|
D|-------------------------------------------------|-----------------------------------|
A|-------------------------------------------------|-----------------------------------|
E|-------------------------------------------------|-----------------------------------|


E|------9---------------9---9--9--|-------------9-------------|------9-------------|
B|--------------------------------|---------------------------|--------------------|
G|----------6-------6-------------|-6---6-----------6---------|-6--------6---------|
D|--------------------------------|---------------------------|--------------------|
A|--------------------------------|---------------------------|--------------------|
E|--------------------------------|---------------------------|--------------------|


E|------9---------------9---9--9--|-------------9---------------2---|-2----4----9---------------|
B|--------------------------------|-----------------------------0---|-0----2--------------------|
G|----------6-------6-------------|-6---6-----------6---------------|---------------6-------6---|
D|--------------------------------|-------------------------6-------|---------------------------|
A|--------------------------------|---------------------------------|---------------------------|
E|--------------------------------|---------------------------------|---------------------------|


E|-9---9--9--------------9-----------|-------------------------0-----|-0-----0--2--0--2--0---------------|
B|-----------------------------------|-------------0-----0-----------|----------------------0--2---------|
G|-----------6---6-----------6-------|-------6--------6-----6-----6--|----6------------------------------|
D|-----------------------------------|----------6--------------------|-----------------------------------|
A|-----------------------------------|-------------------------------|-----------------------------------|
E|-----------------------------------|-------------------------------|-----------------------------------|


E|-------2-----|--------|--------|--------|--------|--------|--------|--------|--------|
B|-2-----0-----|-3------|-3------|--------|--------|--------|--------|--------|--------|
G|-1-----------|-0------|-0------|--------|--------|--------|--------|--------|--------|
D|-------------|--------|--------|--------|--------|--------|--------|--------|--------|
A|-------------|--------|--------|--------|--------|--------|--------|--------|--------|
E|-------------|--------|--------|--------|--------|--------|--------|--------|--------|


E|--------|--------|--------|--------|--------|--------|--------|--------|--------|
B|--------|--------|--------|--------|--------|--------|--------|--------|--------|
G|--------|--------|--------|--------|--------|--------|--------|--------|--------|
D|--------|--------|--------|--------|--------|--------|--------|--------|--------|
A|--------|--------|--------|--------|--------|--------|--------|--------|--------|
E|--------|--------|--------|--------|--------|--------|--------|--------|--------|


E|--------|------------------------------|------------------------------|------------------------------|
B|--------|------------------------------|------------------------------|------------------------------|
G|--------|------------------------------|------------------------------|------------------------------|
D|--------|------------------------------|------------------------------|-6---6---6---6---6---6--------|
A|--------|-4---4---4---4---4---4----2---|-4---4---4---4---4---4----4---|-6---6---6---6---6---6--------|
E|--------|-4---4---4---4---4---4--------|-4---4---4---4---4---4----4---|-4---4---4---4---4---4----2---|


E|---------------------------------|---------------------------------|---------------------------------|
B|---------------------------------|---------------------------------|---------------------------------|
G|---------------------------------|-2---2---2---2---2---2---2---2---|-2---2---2---2---2---2---2---2---|
D|-6---6---6---6---6---6---6---6---|-2---2---2---2---2---2---2---2---|-2---2---2---2---2---2---2---2---|
A|-6---6---6---6---6---6---6---6---|-0---0---0---0---0---0---0---0---|-0---0---0---0---0---0---0---0---|
E|-4---4---4---4---4---4---4---4---|---------------------------------|---------------------------------|


E|---------------------------------|---------------------------------|------------------------------|
B|---------------------------------|---------------------------------|------------------------------|
G|-4---4---4---4---4---4---4---4---|-5---5---5---5---5---5---5---5---|------------------------------|
D|-4---4---4---4---4---4---4---4---|-5---5---5---5---5---5---5---5---|------------------------------|
A|-2---2---2---2---2---2---2---2---|-3---3---3---3---3---3---3---3---|-4---4---4---4---4---4----2---|
E|---------------------------------|---------------------------------|-4---4---4---4---4---4--------|


E|------------------------------|------------------------------|---------------------------------|
B|------------------------------|------------------------------|---------------------------------|
G|------------------------------|------------------------------|---------------------------------|
D|------------------------------|-6---6---6---6---6---6--------|-6---6---6---6---6---6---6---6---|
A|-4---4---4---4---4---4----4---|-6---6---6---6---6---6--------|-6---6---6---6---6---6---6---6---|
E|-4---4---4---4---4---4----4---|-4---4---4---4---4---4----2---|-4---4---4---4---4---4---4---4---|


E|---------------------------------|---------------------------------|---------------------------------|
B|---------------------------------|---------------------------------|---------------------------------|
G|-2---2---2---2---2---2---2---2---|-2---2---2---2---2---2---2---2---|-4---4---4---4---4---4---4---4---|
D|-2---2---2---2---2---2---2---2---|-2---2---2---2---2---2---2---2---|-2---2---2---2---2---2---2---2---|
A|-0---0---0---0---0---0---0---0---|-0---0---0---0---0---0---0---0---|-2---2---2---2---2---2---2---2---|
E|---------------------------------|---------------------------------|---------------------------------|


E|---------------------------------|------------------------------|------------------------------|
B|---------------------------------|------------------------------|------------------------------|
G|---------------------------------|------------------------------|------------------------------|
D|-1---1---1---1---1---1---1---1---|------------------------------|------------------------------|
A|-2---2---2---2---2---2---2---2---|-4---4---4---4---4---4----2---|-4---4---4---4---4---4----4---|
E|---------------------------------|-4---4---4---4---4---4--------|-4---4---4---4---4---4----4---|


E|------------------------------|---------------------------------|---------------------------------|
B|------------------------------|---------------------------------|---------------------------------|
G|------------------------------|---------------------------------|-2---2---2---2---2---2---2---2---|
D|-6---6---6---6---6---6--------|-6---6---6---6---6---6---6---6---|-2---2---2---2---2---2---2---2---|
A|-6---6---6---6---6---6--------|-6---6---6---6---6---6---6---6---|-0---0---0---0---0---0---0---0---|
E|-4---4---4---4---4---4----2---|-4---4---4---4---4---4---4---4---|---------------------------------|


E|---------------------------------|---------------------------------|--------|----------0-------------|
B|---------------------------------|---------------------------------|--------|------2--------2----0---|
G|-2---2---2---2---2---2---2---2---|-4---4---4---4---4---4---4---4---|-5------|-2----------------------|
D|-2---2---2---2---2---2---2---2---|-2---2---2---2---2---2---2---2---|-5------|------------------------|
A|-0---0---0---0---0---0---0---0---|-2---2---2---2---2---2---2---2---|-3------|------------------------|
E|---------------------------------|---------------------------------|--------|------------------------|


E|----------0----------|----------0-------------|----------0----------|-4----0---4---4---0-----|
B|-0-------------2-----|-2-------------2----0---|-0-------------2-----|------------------------|
G|-----2---------------|------2-----------------|-----2---------------|------------------------|
D|---------------------|------------------------|---------------------|------------------------|
A|---------------------|------------------------|---------------------|------------------------|
E|---------------------|------------------------|---------------------|------------------------|


E|-2----0---2----0----0---|-0---4-------0---0---4--------|-2----0---2----0----0---|
B|------------------------|------------------------------|------------------------|
G|------------------------|------------------------------|------------------------|
D|------------------------|------------------------------|------------------------|
A|------------------------|------------------------------|------------------------|
E|------------------------|------------------------------|------------------------|


E|----------0-------------|----------0----------|----------0-------------|----------0----------|
B|------2--------2----0---|-0-------------2-----|-2-------------2----0---|-0-------------2-----|
G|-2----------------------|-----2---------------|------2-----------------|-----2---------------|
D|------------------------|---------------------|------------------------|---------------------|
A|------------------------|---------------------|------------------------|---------------------|
E|------------------------|---------------------|------------------------|---------------------|


E|-4----0---4---4---0-----|-2----0---2----0----0---|-0---4-------0---0---4---4-------|
B|------------------------|------------------------|---------------------------------|
G|------------------------|------------------------|---------------------------------|
D|------------------------|------------------------|---------------------------------|
A|------------------------|------------------------|---------------------------------|
E|------------------------|------------------------|---------------------------------|


E|-2----0---2----0----0---|----------0-------------|----------0----------|----------0-------------|
B|------------------------|------2--------2----0---|-0-------------2-----|-2-------------2----0---|
G|------------------------|-2----------------------|-----2---------------|------2-----------------|
D|------------------------|------------------------|---------------------|------------------------|
A|------------------------|------------------------|---------------------|------------------------|
E|------------------------|------------------------|---------------------|------------------------|


E|----------0----------|--------|------------4---|----4------------------------|--------|
B|-0-------------2-----|--------|----------------|---------4----4--------------|--------|
G|-----2---------------|--------|----------------|-------------------4----4----|-4------|
D|---------------------|--------|----------------|-----------------------------|--------|
A|---------------------|--------|----------------|-----------------------------|--------|
E|---------------------|--------|----------------|-----------------------------|--------|


E|--------|
B|--------|
G|-4------|
D|--------|
A|--------|
E|--------|





Track 5: Rhythm Guitar

E|--------|----------------4---|-4---4---4---4---4---4---4---4---|-4---4---4---4---4---5----4---|
B|--------|----------------5---|-5---5---5---5---5---5---5---5---|-5---5---5---5---5---5----5---|
G|--------|--------------------|---------------------------------|------------------------------|
D|--------|--------------------|---------------------------------|------------------------------|
A|--------|--------------------|---------------------------------|------------------------------|
E|--------|--------------------|---------------------------------|------------------------------|


E|-4---4---4---4---4---4---4---4---|-4---4---4---4---4---5--------|--------|----------------|
B|-5---5---5---5---5---5---5---5---|-5---5---5---5---5---5--------|--------|----------------|
G|---------------------------------|------------------------------|--------|----------------|
D|---------------------------------|--------------------------2---|-2------|-2------2---2---|
A|---------------------------------|--------------------------2---|-2------|-2------2---2---|
E|---------------------------------|------------------------------|--------|----------------|


E|--------|------------7---|-7---7---7---7---7---7---7---7---|-7---7---7---7---7---9----7---|
B|--------|------------9---|-9---9---9---9---9---9---9---9---|-9---9---9---9---9---10---9---|
G|--------|----------------|---------------------------------|------------------------------|
D|-2------|-2------2-------|---------------------------------|------------------------------|
A|-2------|-2------2-------|---------------------------------|------------------------------|
E|--------|----------------|---------------------------------|------------------------------|


E|-7---7---7---7---7---7---7---7---|-7---7---7---7---7---9--------|----------------|
B|-9---9---9---9---9---9---9---9---|-9---9---9---9---9---10-------|----------------|
G|---------------------------------|------------------------------|----------------|
D|---------------------------------|--------------------------2---|-2------2---2---|
A|---------------------------------|--------------------------2---|-2------2---2---|
E|---------------------------------|------------------------------|----------------|


E|------------------------------|----------------|---------------------------------|
B|-----9---9---9---9---10-------|----------------|-----9---9---9---9---9---9---9---|
G|-----9---9---9---9---9--------|----------------|-----9---9---9---9---9---9---9---|
D|-2------------------------2---|-2------2---2---|-2-------------------------------|
A|-2------------------------2---|-2------2---2---|-2-------------------------------|
E|------------------------------|----------------|---------------------------------|


E|---------------------------------|---------------------------------|---------------------------------|
B|-----------------0---------------|-----------------0---------------|-----------------0---------------|
G|-2-------2-----------2-------2---|---------2-----------2-------2---|---------2-----------2-------2---|
D|-2---2-------2-------------------|-----2-------2-------------------|-----2-------2-------------------|
A|---------------------------------|---------------------------------|---------------------------------|
E|---------------------------------|---------------------------------|---------------------------------|


E|-----------------------------0---|--------|----------------0---|----------------0---|
B|-----------------0-----------0---|--------|----------------0---|----------------0---|
G|---------2-----------2-------1---|--------|----------------1---|----------------1---|
D|-----2-------2---------------2---|--------|----------------2---|----------------2---|
A|---------------------------------|--------|--------------------|--------------------|
E|---------------------------------|--------|--------------------|--------------------|


E|-------0------------|---------------------------------|---------------------------------|
B|-------0------------|-----------------0---------------|-----------------0---------------|
G|-------1------------|---------2-----------2-------2---|---------2-----------2-------1---|
D|-------2------------|-----2-------2-------------------|-----2-------2-------------------|
A|--------------------|---------------------------------|---------------------------------|
E|--------------------|---------------------------------|---------------------------------|


E|-----------------12--------|---------------------------------|--------|-------------|
B|---------------------------|-0-------------------------------|--------|-------------|
G|---------2-----------------|---------------------------------|--------|-------------|
D|-----2-------2-------------|---------------------------------|--------|-------------|
A|---------------------------|---------11--12----------9---7---|-7------|-7-----------|
E|-----------------------12--|-----12----------9---7-----------|--------|-------------|


E|-----0---0---0---0---2---2---2---|-2---4---4---4---5---7-----|-----------------0------------|
B|-4-------------------------------|---------------------------|---------0--------------------|
G|---------------------------------|---------------------------|-6---6-------6-------6----6---|
D|---------------------------------|---------------------------|------------------------------|
A|---------------------------------|---------------------------|------------------------------|
E|---------------------------------|---------------------------|------------------------------|


E|-----------------0------------|------------------------------|------------------------------|
B|---------0--------------------|-----------------0------------|-----------------0------------|
G|-6---6-------6-------6----6---|------------------------------|------------------------------|
D|------------------------------|-6---6---4---6-------6----6---|-6---6---4---6-------6----6---|
A|------------------------------|------------------------------|------------------------------|
E|------------------------------|------------------------------|------------------------------|


E|---------------------------------|---------------------------|-0------|-------------|
B|---------------------------------|---------------------------|--------|-1-----------|
G|---------------------------------|---------------------------|--------|-------1-----|
D|-7---7---7-------7-------7---7---|-7-------7-------7---7-----|--------|-------------|
A|---------------------------------|---------------------------|--------|-------------|
E|---------------------------------|---------------------------|--------|-------------|


E|-------------------------7-----------------------|-------------------------7-----------------------|
B|---------5---7---9---10------10--9---7-----------|---------5---7---9---10------10--9---7-----------|
G|-6---8-----------------------------------9---8---|-6---8-----------------------------------9---8---|
D|-------------------------------------------------|-------------------------------------------------|
A|-------------------------------------------------|-------------------------------------------------|
E|-------------------------------------------------|-------------------------------------------------|


E|-------------7---9---11--12--11--9---7-----------|-------------7---9---11--12--11--9---7-----------|
B|-7---9---10------------------------------10--9---|-7---9---10------------------------------10--9---|
G|-------------------------------------------------|-------------------------------------------------|
D|-------------------------------------------------|-------------------------------------------------|
A|-------------------------------------------------|-------------------------------------------------|
E|-------------------------------------------------|-------------------------------------------------|


E|------5---------5----|------6---------6----|-7--5--4--2--5--4--2--0--4--2--0-----2--0--------|
B|---------------------|---------------------|----------------------------------4--------4--2--|
G|-2---------2---------|-3---------3---------|-------------------------------------------------|
D|---------------------|---------------------|-------------------------------------------------|
A|---------------------|---------------------|-------------------------------------------------|
E|---------------------|---------------------|-------------------------------------------------|


E|-------------|-0-------0-------0-------0-------|-0-------0-------0-------0---4---|
B|-0-----------|-2-------2-------2-------2-------|-2-------2-------2-------2---4---|
G|-------------|---------------------------------|---------------------------------|
D|-------------|---------------------------------|---------------------------------|
A|-------------|---------------------------------|---------------------------------|
E|-------------|---------------------------------|---------------------------------|


E|-4---4---4---------4---|-4---4---4-------------|---------------------------------|
B|-4---4---4---------4---|-4---4---4-------------|---------------------------------|
G|-----------------------|-------------------2---|-2---2---2---2---2---2---2---2---|
D|-----------------------|-----------------------|---------------------------------|
A|-----------------------|-----------------------|---------------------------------|
E|-----------------------|-----------------------|---------------------------------|


E|---------------------------------|-0---0---0---0---0---0---0---0---|---------------------------------|
B|---------------------------------|---------------------------------|-4---4---4---4---4---4---4---4---|
G|-2---2---2---2---2---2---2---2---|---------------------------------|---------------------------------|
D|---------------------------------|---------------------------------|---------------------------------|
A|---------------------------------|---------------------------------|---------------------------------|
E|---------------------------------|---------------------------------|---------------------------------|


E|---------------------------------|---------------------------------|---------------------------------|
B|-2---2---2---2---2---2---2---2---|-2---2---2---2---2---2---2---2---|-4---4---4---4---4---4---4---4---|
G|---------------------------------|---------------------------------|---------------------------------|
D|---------------------------------|---------------------------------|---------------------------------|
A|---------------------------------|---------------------------------|---------------------------------|
E|---------------------------------|---------------------------------|---------------------------------|


E|---------------------------------|-0---0---0---0---0---0---0---0---|-0-------------------------------|
B|-4---4---4---4---4---4---4---4---|---------------------------------|-----4---4---2---2---0---0---0---|
G|---------------------------------|---------------------------------|---------------------------------|
D|---------------------------------|---------------------------------|---------------------------------|
A|---------------------------------|---------------------------------|---------------------------------|
E|---------------------------------|---------------------------------|---------------------------------|


E|-2---2---2---2---2---2---2---2---|-3------|-0---0---0---2---2---2---2---2---|-4---4---4---5---5---5---5---5---|
B|---------------------------------|--------|---------------------------------|---------------------------------|
G|---------------------------------|--------|---------------------------------|---------------------------------|
D|---------------------------------|--------|---------------------------------|---------------------------------|
A|---------------------------------|--------|---------------------------------|---------------------------------|
E|---------------------------------|--------|---------------------------------|---------------------------------|


E|-7---7---7---9---9---9---9---9---|-11--11--11--12--12--12--14--4---|-4---7---7---7---7---7---7---7---|
B|---------------------------------|-----------------------------5---|-5---9---9---9---9---9---9---9---|
G|---------------------------------|---------------------------------|---------------------------------|
D|---------------------------------|---------------------------------|---------------------------------|
A|---------------------------------|---------------------------------|---------------------------------|
E|---------------------------------|---------------------------------|---------------------------------|


E|-7---7---7---7---7---9----7---|-7---7---7---7---7---7---7---7---|-7---7---7---7---7---7---7---7---|
B|-9---9---9---9---9---10---9---|-9---9---9---9---9---9---9---9---|-9---9---9---9---9---9---9---9---|
G|------------------------------|---------------------------------|---------------------------------|
D|------------------------------|---------------------------------|---------------------------------|
A|------------------------------|---------------------------------|---------------------------------|
E|------------------------------|---------------------------------|---------------------------------|


E|-----------------------|--------|-------------0----------|-------------|-------------|
B|-----------------------|--------|------------------0-----|-0------0----|-------------|
G|-------------9-----9---|-9------|------------------------|-------------|-------------|
D|-----------------------|--------|-2-------2--------------|-------------|-2-----------|
A|-----------------------|--------|------------------------|-------------|-2-----------|
E|-12------12------------|--------|------------------------|-------------|-------------|


E|--------|--------|-----0---------0--------|-----------9----7---|-7-----7---7----5---|
B|--------|--------|----------0---------0---|--------------------|--------------------|
G|--------|--------|------------------------|-2-----2------------|--------------------|
D|--------|--------|------------------------|--------------------|--------------------|
A|--------|--------|------------------------|--------------------|--------------------|
E|--------|--------|------------------------|--------------------|--------------------|


E|-5-----5---5----4---|-4-----4---4----4---|--------|--------|--------|--------|-----------------0------------|
B|--------------------|--------------------|--------|--------|--------|--------|---------0--------------------|
G|--------------------|--------------------|--------|--------|--------|--------|-6---6-------6-------6----6---|
D|--------------------|--------------------|-2------|-2------|-2------|--------|------------------------------|
A|--------------------|--------------------|-2------|-2------|-2------|--------|------------------------------|
E|--------------------|--------------------|--------|--------|--------|--------|------------------------------|


E|-----------------0------------|------------------------------|------------------------------|
B|---------0--------------------|-----------------0------------|-----------------0------------|
G|-6---6-------6-------6----6---|------------------------------|------------------------------|
D|------------------------------|-6---6---4---6-------6----6---|-6---6---4---6-------6----6---|
A|------------------------------|------------------------------|------------------------------|
E|------------------------------|------------------------------|------------------------------|


E|---------------------------------|---------------------------|-0------|-------------|
B|---------------------------------|---------------------------|--------|-1-----------|
G|---------------------------------|---------------------------|--------|-------1-----|
D|-7---7---7-------7-------7---7---|-7-------7-------7---7-----|--------|-------------|
A|---------------------------------|---------------------------|--------|-------------|
E|---------------------------------|---------------------------|--------|-------------|


E|-------------------------7-----------------------|-------------------------7-----------------------|
B|---------5---7---9---10------10--9---7-----------|---------5---7---9---10------10--9---7-----------|
G|-6---8-----------------------------------9---8---|-6---8-----------------------------------9---8---|
D|-------------------------------------------------|-------------------------------------------------|
A|-------------------------------------------------|-------------------------------------------------|
E|-------------------------------------------------|-------------------------------------------------|


E|-------------7---9---11--12--11--9---7-----------|-------------7---9---11--12--11--9---7-----------|
B|-7---9---10------------------------------10--9---|-7---9---10------------------------------10--9---|
G|-------------------------------------------------|-------------------------------------------------|
D|-------------------------------------------------|-------------------------------------------------|
A|-------------------------------------------------|-------------------------------------------------|
E|-------------------------------------------------|-------------------------------------------------|


E|------5---------5----|------6---------6----|-7--5--4--2--5--4--2--0--4--2--0-----2--0--------|
B|---------------------|---------------------|----------------------------------4--------4--2--|
G|-2---------2---------|-3---------3---------|-------------------------------------------------|
D|---------------------|---------------------|-------------------------------------------------|
A|---------------------|---------------------|-------------------------------------------------|
E|---------------------|---------------------|-------------------------------------------------|


E|-------------|-0------|-0------|------------------------|------------------------|
B|-0-----------|-2------|-2------|------4---------4-------|------4---------4-------|
G|-------------|-1------|-1------|------4---------4-------|------4---------4-------|
D|-------------|--------|--------|------6---------6-------|------6---------6-------|
A|-------------|--------|--------|------------------------|------------------------|
E|-------------|--------|--------|------------------------|------------------------|


E|------0---------0-------|------0---------0-------|------0---------0-------|------2---------2-------|
B|------2---------2-------|------2---------2-------|------0---------0-------|------4---------4-------|
G|------2---------2-------|------2---------2-------|------1---------1-------|------4---------4-------|
D|------------------------|------------------------|------------------------|------------------------|
A|------------------------|------------------------|------------------------|------------------------|
E|------------------------|------------------------|------------------------|------------------------|


E|------0---------0-------|------0---------0-------|------------------------|------------------------|
B|------2---------2-------|------2---------2-------|------4---------4-------|------4---------4-------|
G|------1---------1-------|------1---------1-------|------4---------4-------|------4---------4-------|
D|------------------------|------------------------|------6---------6-------|------6---------6-------|
A|------------------------|------------------------|------------------------|------------------------|
E|------------------------|------------------------|------------------------|------------------------|


E|------0---------0-------|------0---------0-------|------2---------2-------|-0------|
B|------2---------2-------|------2---------2-------|------4---------4-------|-1------|
G|------2---------2-------|------2---------2-------|------4---------4-------|-0------|
D|------------------------|------------------------|------------------------|--------|
A|------------------------|------------------------|------------------------|--------|
E|------------------------|------------------------|------------------------|--------|


E|-0------|-----------------|---------------------|-----------------|---------------------|
B|-1------|-0----2-----0----|------0--------------|-0----2-----0----|---------------------|
G|-0------|-----------------|----------------0----|-----------------|----------------0----|
D|--------|-----------------|-4---------2---------|-----------------|-4----2----4---------|
A|--------|-----------------|---------------------|-----------------|---------------------|
E|--------|-----------------|---------------------|-----------------|---------------------|


E|------------0----|-----------12---11---|------0----------|-----------9-----|------------------------|
B|-0----2----------|-7----9--------------|-----------------|-12--------------|--------------------7---|
G|-----------------|---------------------|-----------11----|-----------------|------8----9------------|
D|-----------------|---------------------|-----------------|-----------------|------------------------|
A|-----------------|---------------------|-----------------|-----------------|------------------------|
E|-----------------|---------------------|-----------------|-----------------|------------------------|


E|-----------------|--------|------0--------2--------|-----3-----3--------|------0----------0---|
B|-----------------|--------|-4----------------------|--------------------|-4-------------------|
G|-------8----9----|--------|------------------------|--------------------|---------------------|
D|-----------------|--------|------------------------|--------------------|---------------------|
A|-----------------|--------|------------------------|--------------------|---------------------|
E|-----------------|--------|------------------------|--------------------|---------------------|


E|----------0-----0---|-0------|-------2-----|--------|-------------------0-----0-----0--2--0--2--0-----|
B|--------------------|--------|-2-----0-----|-3------|-2-----0--2--0--2-----2-----2-----------------0--|
G|--------------------|--------|-1-----------|-0------|----1--------------------------------------------|
D|--------------------|--------|-------------|--------|-------------------------------------------------|
A|--------------------|--------|-------------|--------|-------------------------------------------------|
E|--------------------|--------|-------------|--------|-------------------------------------------------|


E|----------------|-------0-----2--0-----2--------|-0-----2--0-----2--------0-----2--0-----2--------|
B|-2--------------|----------2--------2-----0--2--|----2--------2-----0--2-----2--------2-----0--2--|
G|----------------|-------------------------------|-------------------------------------------------|
D|----------------|-------------------------------|-------------------------------------------------|
A|----------------|-------------------------------|-------------------------------------------------|
E|----------------|-------------------------------|-------------------------------------------------|


E|-0-----2--0-----2-----0--2---------|----------0--2--0-----0--2--0--|-4--------------|
B|----2--------2-----2---------------|-------2-----------2-----------|----------------|
G|-----------------------------------|-------------------------------|----------------|
D|-----------------------------------|-------------------------------|----------------|
A|-----------------------------------|-------------------------------|----------------|
E|-----------------------------------|-------------------------------|----------------|


E|--------|-2-----0-----0-----0-----2-----0-----0-----0-----|-2-----0-----0-----0-----2-----0-----0-----0-----|
B|--------|----2-----0-----0-----2-----2-----0-----0-----2--|----2-----0-----0-----2-----2-----0-----0-----2--|
G|--------|-------------------------------------------------|-------------------------------------------------|
D|--------|-------------------------------------------------|-------------------------------------------------|
A|--------|-------------------------------------------------|-------------------------------------------------|
E|--------|-------------------------------------------------|-------------------------------------------------|


E|-2-----0-----0-----0-----2-----0-----0-----0-----|-2-----0-----0-----0-----0---------|
B|----2-----0-----0-----2-----2-----0-----0-----2--|----2-----0-----0-----2------------|
G|-------------------------------------------------|-----------------------------------|
D|-------------------------------------------------|-----------------------------------|
A|-------------------------------------------------|-----------------------------------|
E|-------------------------------------------------|-----------------------------------|


E|------9---------------9---9--9--|-------------9-------------|------9-------------|
B|--------------------------------|---------------------------|--------------------|
G|----------6-------6-------------|-6---6-----------6---------|-6--------6---------|
D|--------------------------------|---------------------------|--------------------|
A|--------------------------------|---------------------------|--------------------|
E|--------------------------------|---------------------------|--------------------|


E|------9---------------9---9--9--|-------------9---------------2---|-2----4----9---------------|
B|--------------------------------|-----------------------------0---|-0----2--------------------|
G|----------6-------6-------------|-6---6-----------6---------------|---------------6-------6---|
D|--------------------------------|-------------------------6-------|---------------------------|
A|--------------------------------|---------------------------------|---------------------------|
E|--------------------------------|---------------------------------|---------------------------|


E|-9---9--9--------------9-----------|-------------------------0-----|-0-----0--2--0--2--0---------------|
B|-----------------------------------|-------------0-----0-----------|----------------------0--2---------|
G|-----------6---6-----------6-------|-------6--------6-----6-----6--|----6------------------------------|
D|-----------------------------------|----------6--------------------|-----------------------------------|
A|-----------------------------------|-------------------------------|-----------------------------------|
E|-----------------------------------|-------------------------------|-----------------------------------|


E|-------2-----|--------|--------|--------|--------|--------|--------|--------|--------|
B|-2-----0-----|-3------|-3------|--------|--------|--------|--------|--------|--------|
G|-1-----------|-0------|-0------|--------|--------|--------|--------|--------|--------|
D|-------------|--------|--------|--------|--------|--------|--------|--------|--------|
A|-------------|--------|--------|--------|--------|--------|--------|--------|--------|
E|-------------|--------|--------|--------|--------|--------|--------|--------|--------|


E|--------|--------|--------|--------|--------|--------|--------|--------|--------|
B|--------|--------|--------|--------|--------|--------|--------|--------|--------|
G|--------|--------|--------|--------|--------|--------|--------|--------|--------|
D|--------|--------|--------|--------|--------|--------|--------|--------|--------|
A|--------|--------|--------|--------|--------|--------|--------|--------|--------|
E|--------|--------|--------|--------|--------|--------|--------|--------|--------|


E|--------|------------------------------|------------------------------|------------------------------|
B|--------|------------------------------|------------------------------|------------------------------|
G|--------|------------------------------|------------------------------|------------------------------|
D|--------|------------------------------|------------------------------|-6---6---6---6---6---6--------|
A|--------|-4---4---4---4---4---4----2---|-4---4---4---4---4---4----4---|-6---6---6---6---6---6--------|
E|--------|-4---4---4---4---4---4--------|-4---4---4---4---4---4----4---|-4---4---4---4---4---4----2---|


E|---------------------------------|---------------------------------|---------------------------------|
B|---------------------------------|---------------------------------|---------------------------------|
G|---------------------------------|-2---2---2---2---2---2---2---2---|-2---2---2---2---2---2---2---2---|
D|-6---6---6---6---6---6---6---6---|-2---2---2---2---2---2---2---2---|-2---2---2---2---2---2---2---2---|
A|-6---6---6---6---6---6---6---6---|-0---0---0---0---0---0---0---0---|-0---0---0---0---0---0---0---0---|
E|-4---4---4---4---4---4---4---4---|---------------------------------|---------------------------------|


E|---------------------------------|---------------------------------|------------------------------|
B|---------------------------------|---------------------------------|------------------------------|
G|-4---4---4---4---4---4---4---4---|-5---5---5---5---5---5---5---5---|------------------------------|
D|-4---4---4---4---4---4---4---4---|-5---5---5---5---5---5---5---5---|------------------------------|
A|-2---2---2---2---2---2---2---2---|-3---3---3---3---3---3---3---3---|-4---4---4---4---4---4----2---|
E|---------------------------------|---------------------------------|-4---4---4---4---4---4--------|


E|------------------------------|------------------------------|---------------------------------|
B|------------------------------|------------------------------|---------------------------------|
G|------------------------------|------------------------------|---------------------------------|
D|------------------------------|-6---6---6---6---6---6--------|-6---6---6---6---6---6---6---6---|
A|-4---4---4---4---4---4----4---|-6---6---6---6---6---6--------|-6---6---6---6---6---6---6---6---|
E|-4---4---4---4---4---4----4---|-4---4---4---4---4---4----2---|-4---4---4---4---4---4---4---4---|


E|---------------------------------|---------------------------------|---------------------------------|
B|---------------------------------|---------------------------------|---------------------------------|
G|-2---2---2---2---2---2---2---2---|-2---2---2---2---2---2---2---2---|-4---4---4---4---4---4---4---4---|
D|-2---2---2---2---2---2---2---2---|-2---2---2---2---2---2---2---2---|-2---2---2---2---2---2---2---2---|
A|-0---0---0---0---0---0---0---0---|-0---0---0---0---0---0---0---0---|-2---2---2---2---2---2---2---2---|
E|---------------------------------|---------------------------------|---------------------------------|


E|---------------------------------|------------------------------|------------------------------|
B|---------------------------------|------------------------------|------------------------------|
G|---------------------------------|------------------------------|------------------------------|
D|-1---1---1---1---1---1---1---1---|------------------------------|------------------------------|
A|-2---2---2---2---2---2---2---2---|-4---4---4---4---4---4----2---|-4---4---4---4---4---4----4---|
E|---------------------------------|-4---4---4---4---4---4--------|-4---4---4---4---4---4----4---|


E|------------------------------|---------------------------------|---------------------------------|
B|------------------------------|---------------------------------|---------------------------------|
G|------------------------------|---------------------------------|-2---2---2---2---2---2---2---2---|
D|-6---6---6---6---6---6--------|-6---6---6---6---6---6---6---6---|-2---2---2---2---2---2---2---2---|
A|-6---6---6---6---6---6--------|-6---6---6---6---6---6---6---6---|-0---0---0---0---0---0---0---0---|
E|-4---4---4---4---4---4----2---|-4---4---4---4---4---4---4---4---|---------------------------------|


E|---------------------------------|---------------------------------|--------|----------0-------------|
B|---------------------------------|---------------------------------|--------|------2--------2----0---|
G|-2---2---2---2---2---2---2---2---|-4---4---4---4---4---4---4---4---|-5------|-2----------------------|
D|-2---2---2---2---2---2---2---2---|-2---2---2---2---2---2---2---2---|-5------|------------------------|
A|-0---0---0---0---0---0---0---0---|-2---2---2---2---2---2---2---2---|-3------|------------------------|
E|---------------------------------|---------------------------------|--------|------------------------|


E|----------0----------|----------0-------------|----------0----------|-4----0---4---4---0-----|
B|-0-------------2-----|-2-------------2----0---|-0-------------2-----|------------------------|
G|-----2---------------|------2-----------------|-----2---------------|------------------------|
D|---------------------|------------------------|---------------------|------------------------|
A|---------------------|------------------------|---------------------|------------------------|
E|---------------------|------------------------|---------------------|------------------------|


E|-2----0---2----0----0---|-0---4-------0---0---4--------|-2----0---2----0----0---|
B|------------------------|------------------------------|------------------------|
G|------------------------|------------------------------|------------------------|
D|------------------------|------------------------------|------------------------|
A|------------------------|------------------------------|------------------------|
E|------------------------|------------------------------|------------------------|


E|----------0-------------|----------0----------|----------0-------------|----------0----------|
B|------2--------2----0---|-0-------------2-----|-2-------------2----0---|-0-------------2-----|
G|-2----------------------|-----2---------------|------2-----------------|-----2---------------|
D|------------------------|---------------------|------------------------|---------------------|
A|------------------------|---------------------|------------------------|---------------------|
E|------------------------|---------------------|------------------------|---------------------|


E|-4----0---4---4---0-----|-2----0---2----0----0---|-0---4-------0---0---4---4-------|
B|------------------------|------------------------|---------------------------------|
G|------------------------|------------------------|---------------------------------|
D|------------------------|------------------------|---------------------------------|
A|------------------------|------------------------|---------------------------------|
E|------------------------|------------------------|---------------------------------|


E|-2----0---2----0----0---|----------0-------------|----------0----------|----------0-------------|
B|------------------------|------2--------2----0---|-0-------------2-----|-2-------------2----0---|
G|------------------------|-2----------------------|-----2---------------|------2-----------------|
D|------------------------|------------------------|---------------------|------------------------|
A|------------------------|------------------------|---------------------|------------------------|
E|------------------------|------------------------|---------------------|------------------------|


E|----------0----------|--------|------------4---|----4------------------------|--------|
B|-0-------------2-----|--------|----------------|---------4----4--------------|--------|
G|-----2---------------|--------|----------------|-------------------4----4----|-4------|
D|---------------------|--------|----------------|-----------------------------|--------|
A|---------------------|--------|----------------|-----------------------------|--------|
E|---------------------|--------|----------------|-----------------------------|--------|


E|--------|
B|--------|
G|-4------|
D|--------|
A|--------|
E|--------|





Track 6: Keyboard

E|--------|--------|--------|--------|--------|--------|--------|--------|--------|
B|--------|--------|--------|--------|--------|--------|--------|--------|--------|
G|--------|--------|--------|--------|--------|--------|--------|--------|--------|
D|--------|--------|--------|--------|--------|--------|--------|--------|--------|
A|--------|--------|--------|--------|--------|--------|--------|--------|--------|
E|--------|--------|--------|--------|--------|--------|--------|--------|--------|


E|--------|--------|--------|--------|--------|--------|--------|--------|--------|
B|--------|--------|--------|--------|--------|--------|--------|--------|--------|
G|--------|--------|--------|--------|--------|--------|--------|--------|--------|
D|--------|--------|--------|--------|--------|--------|--------|--------|--------|
A|--------|--------|--------|--------|--------|--------|--------|--------|--------|
E|--------|--------|--------|--------|--------|--------|--------|--------|--------|


E|--------|--------|--------|--------|--------|--------|--------|--------|--------|
B|--------|--------|--------|--------|--------|--------|--------|--------|--------|
G|--------|--------|--------|--------|--------|--------|--------|--------|--------|
D|--------|--------|--------|--------|--------|--------|--------|--------|--------|
A|--------|--------|--------|--------|--------|--------|--------|--------|--------|
E|--------|--------|--------|--------|--------|--------|--------|--------|--------|


E|--------|--------|--------|--------|--------|--------|--------|--------|--------|
B|--------|--------|--------|--------|--------|--------|--------|--------|--------|
G|--------|--------|--------|--------|--------|--------|--------|--------|--------|
D|--------|--------|--------|--------|--------|--------|--------|--------|--------|
A|--------|--------|--------|--------|--------|--------|--------|--------|--------|
E|--------|--------|--------|--------|--------|--------|--------|--------|--------|


E|--------|--------|--------|--------|--------|--------|--------|--------|--------|
B|--------|--------|--------|--------|--------|--------|--------|--------|--------|
G|--------|--------|--------|--------|--------|--------|--------|--------|--------|
D|--------|--------|--------|--------|--------|--------|--------|--------|--------|
A|--------|--------|--------|--------|--------|--------|--------|--------|--------|
E|--------|--------|--------|--------|--------|--------|--------|--------|--------|


E|--------|--------|--------|--------|--------|--------|--------|--------|--------|
B|--------|--------|--------|--------|--------|--------|--------|--------|--------|
G|--------|--------|--------|--------|--------|--------|--------|--------|--------|
D|--------|--------|--------|--------|--------|--------|--------|--------|--------|
A|--------|--------|--------|--------|--------|--------|--------|--------|--------|
E|--------|--------|--------|--------|--------|--------|--------|--------|--------|


E|--------|--------|--------|--------|--------|--------|--------|--------|--------|
B|--------|--------|--------|--------|--------|--------|--------|--------|--------|
G|--------|--------|--------|--------|--------|--------|--------|--------|--------|
D|--------|--------|--------|--------|--------|--------|--------|--------|--------|
A|--------|--------|--------|--------|--------|--------|--------|--------|--------|
E|--------|--------|--------|--------|--------|--------|--------|--------|--------|


E|--------|--------|--------|--------|--------|--------|--------|--------|--------|
B|--------|--------|--------|--------|--------|--------|--------|--------|--------|
G|--------|--------|--------|--------|--------|--------|--------|--------|--------|
D|--------|--------|--------|--------|--------|--------|--------|--------|--------|
A|--------|--------|--------|--------|--------|--------|--------|--------|--------|
E|--------|--------|--------|--------|--------|--------|--------|--------|--------|


E|--------|--------|--------|--------|--------|--------|--------|--------|--------|
B|--------|--------|--------|--------|--------|--------|--------|--------|--------|
G|--------|--------|--------|--------|--------|--------|--------|--------|--------|
D|--------|--------|--------|--------|--------|--------|--------|--------|--------|
A|--------|--------|--------|--------|--------|--------|--------|--------|--------|
E|--------|--------|--------|--------|--------|--------|--------|--------|--------|


E|--------|--------|--------|--------|--------|--------|--------|--------|--------|
B|--------|--------|--------|--------|--------|--------|--------|--------|--------|
G|--------|--------|--------|--------|--------|--------|--------|--------|--------|
D|--------|--------|--------|--------|--------|--------|--------|--------|--------|
A|--------|--------|--------|--------|--------|--------|--------|--------|--------|
E|--------|--------|--------|--------|--------|--------|--------|--------|--------|


E|--------|--------|--------|--------|--------|--------|--------|--------|--------|
B|--------|--------|--------|--------|--------|--------|--------|--------|--------|
G|--------|--------|--------|--------|--------|--------|--------|--------|--------|
D|--------|--------|--------|--------|--------|--------|--------|--------|--------|
A|--------|--------|--------|--------|--------|--------|--------|--------|--------|
E|--------|--------|--------|--------|--------|--------|--------|--------|--------|


E|--------|--------|--------|--------|--------|--------|--------|--------|--------|
B|--------|--------|--------|--------|--------|--------|--------|--------|--------|
G|--------|--------|--------|--------|--------|--------|--------|--------|--------|
D|--------|--------|--------|--------|--------|--------|--------|--------|--------|
A|--------|--------|--------|--------|--------|--------|--------|--------|--------|
E|--------|--------|--------|--------|--------|--------|--------|--------|--------|


E|--------|--------|--------|--------|--------|--------|--------|--------|--------|
B|--------|--------|--------|--------|--------|--------|--------|--------|--------|
G|--------|--------|--------|--------|--------|--------|--------|--------|--------|
D|--------|--------|--------|--------|--------|--------|--------|--------|--------|
A|--------|--------|--------|--------|--------|--------|--------|--------|--------|
E|--------|--------|--------|--------|--------|--------|--------|--------|--------|


E|--------|--------|--------|--------|--------|--------|--------|--------|--------|
B|--------|--------|--------|--------|--------|--------|--------|--------|--------|
G|--------|--------|--------|--------|--------|--------|--------|--------|--------|
D|--------|--------|--------|--------|--------|--------|--------|--------|--------|
A|--------|--------|--------|--------|--------|--------|--------|--------|--------|
E|--------|--------|--------|--------|--------|--------|--------|--------|--------|


E|--------|--------|--------|--------|--------|--------|--------|--------|--------|
B|--------|--------|--------|--------|--------|--------|--------|--------|--------|
G|--------|--------|--------|--------|--------|--------|--------|--------|--------|
D|--------|--------|--------|--------|--------|--------|--------|--------|--------|
A|--------|--------|--------|--------|--------|--------|--------|--------|--------|
E|--------|--------|--------|--------|--------|--------|--------|--------|--------|


E|--------|--------|--------|--------|--------|--------|--------|--------|--------|
B|--------|--------|--------|--------|--------|--------|--------|--------|--------|
G|--------|--------|--------|--------|--------|--------|--------|--------|--------|
D|--------|--------|--------|--------|--------|--------|--------|--------|--------|
A|--------|--------|--------|--------|--------|--------|--------|--------|--------|
E|--------|--------|--------|--------|--------|--------|--------|--------|--------|


E|--------|--------|--------|--------|--------|--------|--------|--------|--------|
B|--------|--------|--------|--------|--------|--------|--------|--------|--------|
G|--------|--------|--------|--------|--------|--------|--------|--------|--------|
D|--------|--------|--------|--------|--------|--------|--------|--------|--------|
A|--------|--------|--------|--------|--------|--------|--------|--------|--------|
E|--------|--------|--------|--------|--------|--------|--------|--------|--------|


E|--------|--------|--------|--------|--------|--------|--------|--------|--------|
B|--------|--------|--------|--------|--------|--------|--------|--------|--------|
G|--------|--------|--------|--------|--------|--------|--------|--------|--------|
D|--------|--------|--------|--------|--------|--------|--------|--------|--------|
A|--------|--------|--------|--------|--------|--------|--------|--------|--------|
E|--------|--------|--------|--------|--------|--------|--------|--------|--------|


E|--------|--------|--------|--------|--------|--------|--------|-9-------12------9-------12------|
B|--------|--------|--------|--------|--------|--------|--------|-----9-------9-------9-------9---|
G|--------|--------|--------|--------|--------|--------|--------|---------------------------------|
D|--------|--------|--------|--------|--------|--------|--------|---------------------------------|
A|--------|--------|--------|--------|--------|--------|--------|---------------------------------|
E|--------|--------|--------|--------|--------|--------|--------|---------------------------------|


E|-11------9-------11------9-------|-9-------12------9-------12------|-11------9-------11------9-------|
B|-----9-------9-------9-------9---|-----9-------9-------9-------9---|-----9-------9-------9-------9---|
G|---------------------------------|---------------------------------|---------------------------------|
D|---------------------------------|---------------------------------|---------------------------------|
A|---------------------------------|---------------------------------|---------------------------------|
E|---------------------------------|---------------------------------|---------------------------------|


E|-12------9-------12------9-------|-12------9-------12------9-------|-7-------11------7-------11------|
B|-----9-------9-------9-------9---|-----9-------9-------9-------9---|-----9-------9-------9-------9---|
G|---------------------------------|---------------------------------|---------------------------------|
D|---------------------------------|---------------------------------|---------------------------------|
A|---------------------------------|---------------------------------|---------------------------------|
E|---------------------------------|---------------------------------|---------------------------------|


E|-7-------11------7-------11------|-9-------12------9-------12------|-9-------12------9-------12------|
B|-----9-------9-------9-------9---|-----10------10------10------10--|-----10------10------10------10--|
G|---------------------------------|---------------------------------|---------------------------------|
D|---------------------------------|---------------------------------|---------------------------------|
A|---------------------------------|---------------------------------|---------------------------------|
E|---------------------------------|---------------------------------|---------------------------------|


E|---------12------7-------12------|-7-------11--------------11------|--------------------|
B|-12--9-------9-------9-------9---|-----7-----------12--------------|--------------------|
G|---------------------------------|-------------11------11------11--|-11-----------------|
D|---------------------------------|---------------------------------|--------------------|
A|---------------------------------|---------------------------------|--------------------|
E|---------------------------------|---------------------------------|--------------------|


E|--------|--------|--------|--------|--------|--------|--------|--------|--------|
B|--------|--------|--------|--------|--------|--------|--------|--------|--------|
G|--------|--------|--------|--------|--------|--------|--------|--------|--------|
D|--------|--------|--------|--------|--------|--------|--------|--------|--------|
A|--------|--------|--------|--------|--------|--------|--------|--------|--------|
E|--------|--------|--------|--------|--------|--------|--------|--------|--------|


E|--------|--------|--------|--------|--------|--------|-12-----|-12-----|--------|
B|--------|--------|--------|--------|--------|--------|--------|--------|--------|
G|--------|--------|--------|--------|--------|--------|--------|--------|--------|
D|--------|--------|--------|--------|--------|--------|--------|--------|--------|
A|--------|--------|--------|--------|--------|--------|--------|--------|--------|
E|--------|--------|--------|--------|--------|--------|--------|--------|--------|


E|--------|--------|--------|--------|--------|--------|--------|--------|--------|
B|--------|--------|--------|--------|--------|--------|--------|--------|--------|
G|--------|--------|--------|--------|--------|--------|--------|--------|--------|
D|--------|--------|--------|--------|--------|--------|--------|--------|--------|
A|--------|--------|--------|--------|--------|--------|--------|--------|--------|
E|--------|--------|--------|--------|--------|--------|--------|--------|--------|


E|--------|--------|--------|--------|--------|--------|--------|--------|--------|
B|--------|--------|--------|--------|--------|--------|--------|--------|--------|
G|--------|--------|--------|--------|--------|--------|--------|--------|--------|
D|--------|--------|--------|--------|--------|--------|--------|--------|--------|
A|--------|--------|--------|--------|--------|--------|--------|--------|--------|
E|--------|--------|--------|--------|--------|--------|--------|--------|--------|


E|--------|--------|--------|--------|--------|--------|--------|--------|--------|
B|--------|--------|--------|--------|--------|--------|--------|--------|--------|
G|--------|--------|--------|--------|--------|--------|--------|--------|--------|
D|--------|--------|--------|--------|--------|--------|--------|--------|--------|
A|--------|--------|--------|--------|--------|--------|--------|--------|--------|
E|--------|--------|--------|--------|--------|--------|--------|--------|--------|


E|--------|--------|--------|
B|--------|--------|--------|
G|--------|--------|--------|
D|--------|--------|--------|
A|--------|--------|--------|
E|--------|--------|--------|





Track 7: Bass

G|--------|--------------------|---------------------------------|------------------------------|
D|--------|--------------------|---------------------------------|------------------------------|
A|--------|----------------0---|-0---0---0---0---0---0---0---0---|-0---0---0---0---0---0----0---|
E|--------|--------------------|---------------------------------|------------------------------|


G|---------------------------------|---------------------------------|---------------------------------|
D|---------------------------------|---------------------------------|---------2-------1---2---1-------|
A|-0---0---0---0---0---0---0---0---|-0---0---0---0---0---0---0-------|-----------------------------4---|
E|---------------------------------|-----------------------------0---|-0---0-------0-------------------|


G|---------------------------------|---------------------------------|---------------------------------|
D|---------------------------------|---------2-------1---2---1-------|-2---1-------1---2---4-----------|
A|-2-------2-----------0---2-------|-----------------------------2---|---------2-------------------0---|
E|-----0-------0---4-----------0---|-0---0-------0-------------------|-------------------------4-------|


G|---------------------------------|------------------------------|---------------------------------|
D|---------------------------------|------------------------------|---------------------------------|
A|-0---0---0---0---0---0---0---0---|-0---0---0---0---0---0----0---|-0---0---0---0---0---0---0---0---|
E|---------------------------------|------------------------------|---------------------------------|


G|---------------------------------|---------------------------------|---------------------------------|
D|---------------------------------|---------2-------1---2---1-------|---------------------------------|
A|-0---0---0---0---0---0---0-------|-----------------------------4---|-2-------2-----------0---2-------|
E|-----------------------------0---|-0---0-------0-------------------|-----0-------0---4-----------0---|


G|---------------------------------|---------------------------------|--------------------|
D|---------2-------2-------2-------|-1-------1-------4-------2-------|--------------------|
A|---------------------------------|---------------------------------|-0-----0------------|
E|-0---0-------0-------0-------0---|-----0-------0-------0-------0---|--------------------|


G|--------|--------|--------|---------------------|------------------------|---------------------|
D|--------|--------|--------|---------------------|------------------------|---------------------|
A|--------|--------|--------|---------------------|------------------------|---------------------|
E|--------|--------|--------|-0----0----0----0----|-0----0----0----0---0---|-0----0----0----0----|


G|------------------------|--------------------|--------|--------|--------|---------------------|
D|------------------------|--------------------|--------|--------|--------|---------------------|
A|------------------------|-0-----0------------|--------|--------|--------|---------------------|
E|-0----0----0----0-------|--------------------|--------|--------|--------|-0----0----0----0----|


G|------------------------|---------------------|---------------------|------------------------------|
D|------------------------|---------------------|---------------------|-----------------2------------|
A|------------------------|---------------------|---------------------|-4---4---2---4-------4----4---|
E|-0----0----0----0---0---|-0----0----0----0----|-0----0----0----0----|------------------------------|


G|------------------------------|------------------------------|------------------------------|
D|-----------------2------------|------------------------------|------------------------------|
A|-4---4---2---4-------4--------|-----------------2------------|-----------------2------------|
E|------------------------------|-4---4---2---4-------4----4---|-4---4---2---4-------4----4---|


G|---------------------------|------------------------|---------------------------------|
D|---------------------------|------------------------|-2---2---2---2---2-------2-------|
A|-0---0---0----0----0---0---|-0----0----0---0----0---|---------------------2-------2---|
E|---------------------------|------------------------|---------------------------------|


G|-------------|-----------------------------1---|-----------------------------1---|
D|-1-----------|-------------------------4-------|-------------------------4-------|
A|-------3-----|-4---4---4---4---4---4-----------|-4---4---4---4---4---4-----------|
E|-------------|---------------------------------|---------------------------------|


G|---------------------------------|---------------------------------|------2---------2----|
D|-----------------------------1---|-----------------------------1---|---------------------|
A|-------------------------4-------|-------------------------4-------|-0---------0---------|
E|-4---4---4---4---4---4-----------|-4---4---4---4---4---4-----------|---------------------|


G|------3---------3----|-4--2--1-----2--1--------1-----------------------|-------------|
D|---------------------|----------4--------4--2-----4--2--1--4--2--1-----|-------------|
A|-1---------1---------|----------------------------------------------4--|-2-----------|
E|---------------------|-------------------------------------------------|-------------|


G|---------------------------------|---------------------------------|-----------------------|
D|---------------------------------|---------------------------------|-----------------------|
A|-4-------4-------4-------4-------|-4-------4-------4-------4-------|-----------------------|
E|---------------------------------|-----------------------------4---|-4---4---4---------4---|


G|-----------------------|---------------------------|---------------------------|
D|-----------------------|---------------------------|---------------------------|
A|-------------------0---|-0---0---0----0---0---0----|-0---0---0----0---0---0----|
E|-4---4---4-------------|---------------------------|---------------------------|


G|---------------------------|---------------------------------|------------------------------|
D|-2---2---2----1---2----2---|---------------------------------|------------------------------|
A|---------------------------|-2---2---2---2---2---2---2---2---|-4---4---4---4---4---4----4---|
E|---------------------------|---------------------------------|------------------------------|


G|------------------------------|------------------------------|------------------------------|
D|------------------------------|------------------------------|------------------------------|
A|-4---4---4---4---4---4----4---|------------------------------|------------------------------|
E|------------------------------|-4---4---4---4---4---4----4---|-4---4---4---4---4---4----4---|


G|---------------------------------|---------------------------------|---------------------------------|
D|---------------------------------|---------------------------------|---------------------------------|
A|-0---0---0---0---0---0---0---0---|-0---0---0---0---0---0---0---0---|-2---2---2---2---2---2---2---2---|
E|---------------------------------|---------------------------------|---------------------------------|


G|----------------|------------------|------------------|------------------|---------------------|
D|----------------|------------------|------------------|------------------|---------------------|
A|-3--------------|-4-----4-----4----|-4-----4-----4----|-4-----4-----4----|-4-----4-----4---0---|
E|----------------|------------------|------------------|------------------|---------------------|


G|---------------------------------|------------------------------|---------------------------------|
D|---------------------------------|------------------------------|---------------------------------|
A|-0---0---0---0---0---0---0---0---|-0---0---0---0---0---0----0---|-0---0---0---0---0---0---0---0---|
E|---------------------------------|------------------------------|---------------------------------|


G|---------------------------------|-------------|--------|--------|--------|---------------------|
D|---------------------------------|-------------|--------|--------|--------|---------------------|
A|-0---0---0---0---0---0---0---0---|-0-----------|--------|--------|--------|---------------------|
E|---------------------------------|-------------|--------|--------|--------|-0-------------------|


G|--------|--------|--------|-------------|--------|-------------|--------|-------------|
D|--------|--------|--------|-------------|--------|-------------|--------|-------------|
A|--------|--------|--------|-0-----0-----|-0------|-0-----0-----|-0------|-0-----0-----|
E|--------|--------|--------|-------------|--------|-------------|--------|-------------|


G|--------|-------------|--------|------------------------------|------------------------------|
D|--------|-------------|--------|-----------------2------------|-----------------2------------|
A|-0------|-0-----0-----|--------|-4---4---2---4-------4----4---|-4---4---2---4-------4--------|
E|--------|-------------|--------|------------------------------|------------------------------|


G|------------------------------|------------------------------|---------------------------|
D|------------------------------|------------------------------|---------------------------|
A|-----------------2------------|-----------------2------------|-0---0---0----0----0---0---|
E|-4---4---2---4-------4----4---|-4---4---2---4-------4----4---|---------------------------|


G|------------------------|---------------------------------|-------------|-----------------------------1---|
D|------------------------|-2---2---2---2---2-------2-------|-1-----------|-------------------------4-------|
A|-0----0----0---0----0---|---------------------2-------2---|-------3-----|-4---4---4---4---4---4-----------|
E|------------------------|---------------------------------|-------------|---------------------------------|


G|-----------------------------1---|---------------------------------|---------------------------------|
D|-------------------------4-------|-----------------------------1---|-----------------------------1---|
A|-4---4---4---4---4---4-----------|-------------------------4-------|-------------------------4-------|
E|---------------------------------|-4---4---4---4---4---4-----------|-4---4---4---4---4---4-----------|


G|------2---------2----|------3---------3----|-4--2--1-----2--1--------1-----------------------|
D|---------------------|---------------------|----------4--------4--2-----4--2--1--4--2--1-----|
A|-0---------0---------|-1---------1---------|----------------------------------------------4--|
E|---------------------|---------------------|-------------------------------------------------|


G|-------------|--------|--------|---------------------------------|---------------------------|
D|-------------|--------|--------|---------------------------------|---------------------------|
A|-2-----------|-4------|-4------|-------------------------2-------|---------------------------|
E|-------------|--------|--------|-4-------2-------4-----------4---|-4---4---2-------4-----4---|


G|---------------------------------|-----------------------|---------------------------------|
D|---------------------------------|-----------------------|---------------------------------|
A|-0-------------------------------|-0-----0---2---4-------|-------------------------2-------|
E|---------4-------2-------4-------|-----------------------|-0-------2-------4---------------|


G|--------------------|---------------------------------|---------------------------|
D|-4------------------|---------------------------------|---------------------------|
A|-----4---2----2-----|-----4---4---2-----------2---4---|-----4---4-----2---4-------|
E|--------------------|-----------------4---------------|---------------------------|


G|---------------------------------|--------------------|---------------------------------|
D|---------------------------------|--------------------|---------------------------------|
A|-------------------------2-------|--------------------|-0-------------------------------|
E|-4-------2-------4-----------4---|-----4---2----4-----|---------4-------2-------4-------|


G|-----------------------|----------------|--------|--------|-----------------|---------------------|
D|-----------------------|----------------|--------|--------|-----------------|---------------------|
A|-0-----0-----------0---|-2------2---2---|-3------|--------|-2----4-----2----|------2--------------|
E|-----------2---4-------|----------------|--------|--------|-----------------|-2---------0----3----|


G|-----------------|---------------------|-----------------|------0----7----9----|
D|-----------------|---------------------|------------2----|-4-------------------|
A|-2----4-----2----|---------------------|-2----4----------|---------------------|
E|-----------------|-2----0----2----3----|-----------------|---------------------|


G|-----------------|-----------------|------------------------------|------------------------------|
D|-----------------|-----------------|------------------------------|-----------------2------------|
A|-----------------|------2----------|-----2---4--------2---4---4---|-----2---4---2--------2---4---|
E|-7----9-----7----|-2---------0-----|------------------------------|------------------------------|


G|------------------------------|------------------------------|---------------------------------|
D|------------------------------|------------------------------|---------------------------------|
A|-4--------2---4---4-------2---|-4---2--------2---4---4-------|-----2---4---4-------2---4---2---|
E|------------------------------|---------3--------------------|---------------------------------|


G|---------------------------|------------------------------|--------|-------------|
D|-2-------------------------|-------------2------------2---|-2------|-------------|
A|------2---4---4--------2---|-4---2---4--------2---4-------|--------|-4-----2-----|
E|---------------------------|------------------------------|--------|-------------|


G|--------|-------------------------------------------------|----------------|-------------------------------|
D|--------|-------------------2-----2-----2--4--2--4--2-----|----------------|-------2-----4--2-----4--------|
A|--------|-4-----2--4--2--4-----4-----4-----------------2--|-4--------------|----------4--------4-----2--4--|
E|-3------|----4--------------------------------------------|----------------|-------------------------------|


G|-------------------------------------------------|-----------------------------------|
D|-2-----4--2-----4--------2-----4--2-----4--------|-2-----4--2-----4-----2--4---------|
A|----4--------4-----2--4-----4--------4-----2--4--|----4--------4-----4---------------|
E|-------------------------------------------------|-----------------------------------|


G|-------------------------------|-1--------------|--------|-------------------------------------------------|
D|----------2--4--2-----2--4--2--|----------------|--------|-4-----2-----2-----2-----4-----2-----2-----2-----|
A|-------4-----------4-----------|----------------|--------|----4-----2-----2-----4-----4-----2-----2-----4--|
E|-------------------------------|----------------|--------|-------------------------------------------------|


G|-------------------------------------------------|-------------------------------------------------|
D|-4-----2-----2-----2-----4-----2-----2-----2-----|-4-----2-----2-----2-----4-----2-----2-----2-----|
A|----4-----2-----2-----4-----4-----2-----2-----4--|----4-----2-----2-----4-----4-----2-----2-----4--|
E|-------------------------------------------------|-------------------------------------------------|


G|-----------------------------------|------6---------------6---6--6--|-------------6-------------|
D|-4-----2-----2-----2-----2---------|--------------------------------|---------------------------|
A|----4-----2-----2-----4------------|----------4-------4-------------|-4---4-----------4---------|
E|-----------------------------------|--------------------------------|---------------------------|


G|------6-------------|------6---------------6---6--6--|-------------6----------------|
D|--------------------|--------------------------------|------------------------------|
A|-4--------4---------|----------4-------4-------------|-4---4-----------4--------2---|
E|--------------------|--------------------------------|----------------------4-------|


G|--------------6---------------|-6---6--6--------------6-----------|-------------------------------|
D|------------------------------|-----------------------------------|-------------------------2-----|
A|-2----4-----------4-------4---|-----------4---4-----------4-------|-------4-----2--4--2--4-----4--|
E|------------------------------|-----------------------------------|----------4--------------------|


G|-----------------------------------|-------------|--------|--------|--------|--------|
D|-2-----2--4--2--4--2---------------|-------------|--------|--------|--------|--------|
A|----4-----------------2--4---------|-4-----2-----|--------|--------|-4------|-4------|
E|-----------------------------------|-------------|-3------|-3------|--------|--------|


G|--------|--------|-------------1---------------1---|-------------1---------------1---|
D|--------|--------|---------4---------------4-------|---------4---------------4-------|
A|-4------|-4------|-4---4-----------4---4-----------|-4---4-----------4---4-----------|
E|--------|--------|---------------------------------|---------------------------------|


G|-------------1---------------1---|-------------1---------------1---|-------------1---------------1---|
D|---------4---------------4-------|---------4---------------4-------|---------4---------------4-------|
A|-4---4-----------4---4-----------|-4---4-----------4---4-----------|-4---4-----------4---4-----------|
E|---------------------------------|---------------------------------|---------------------------------|


G|-------------1---------------1---|---------------------------------|---------------------------------|
D|---------4---------------4-------|-------------1---------------1---|-------------1---------------1---|
A|-4---4-----------4---4-----------|---------4---------------4-------|---------4---------------4-------|
E|---------------------------------|-4---4-----------4---4-----------|-4---4-----------4---4-----------|


G|---------------------------------|---------------------------------|---------2---4-----------2---4---|
D|---------1---2-----------1---2---|---------1---2-----------1---2---|-2---2-----------2---2-----------|
A|-0---0-----------0---0-----------|-0---0-----------0---0-----------|---------------------------------|
E|---------------------------------|---------------------------------|---------------------------------|


G|---------------------------------|------------------------------|------------------------------|
D|---------------------------------|------------------------------|------------------------------|
A|-2---2---2---2---2---2---2---2---|-4---4---4---4---4---4----4---|-4---4---4---4---4---4----4---|
E|---------------------------------|------------------------------|------------------------------|


G|------------------------------|---------------------------------|---------------------------------|
D|------------------------------|---------------------------------|---------------------------------|
A|------------------------------|---------------------------------|-0---0---0---0---0---0---0---0---|
E|-4---4---4---4---4---4----4---|-4---4---4---4---4---4---4---4---|---------------------------------|


G|---------------------------------|---------------------------------|---------------------------------|
D|---------------------------------|---------------------------------|---------------------------------|
A|-0---0---0---0---0---0---0---0---|-2---2---2---2---2---2---2---2---|-3---3---3---3---3---3---3---3---|
E|---------------------------------|---------------------------------|---------------------------------|


G|------------------------------|------------------------------|------------------------------|
D|------------------------------|------------------------------|------------------------------|
A|-4---4---4---4---4---4----4---|-4---4---4---4---4---4----4---|------------------------------|
E|------------------------------|------------------------------|-4---4---4---4---4---4----4---|


G|---------------------------------|---------------------------------|---------------------------------|
D|---------------------------------|---------------------------------|---------------------------------|
A|---------------------------------|-0---0---0---0---0---0---0---0---|-0---0---0---0---0---0---0---0---|
E|-4---4---4---4---4---4---4---4---|---------------------------------|---------------------------------|


G|---------------------------------|---------------------------------|------------------------------|
D|-2---2---2---2---2---2---2---2---|-1---1---1---1---1---1---1---1---|------------------------------|
A|---------------------------------|---------------------------------|-4---4---4---4---4---4----4---|
E|---------------------------------|---------------------------------|------------------------------|


G|------------------------------|------------------------------|---------------------------------|
D|------------------------------|------------------------------|---------------------------------|
A|-4---4---4---4---4---4----4---|------------------------------|---------------------------------|
E|------------------------------|-4---4---4---4---4---4----4---|-4---4---4---4---4---4---4---4---|


G|---------------------------------|---------------------------------|---------------------------------|
D|---------------------------------|---------------------------------|---------------------------------|
A|-0---0---0---0---0---0---0---0---|-0---0---0---0---0---0---0---0---|-2---2---2---2---2---2---2---2---|
E|---------------------------------|---------------------------------|---------------------------------|


G|--------|--------|--------------------|-----------------------|--------|--------|
D|--------|--------|--------------------|-----------------------|--------|--------|
A|-3------|-0------|-0-----0----0-------|-0-----------0-----0---|-0------|--------|
E|--------|--------|----------------0---|-----0---4-------------|--------|-0------|


G|--------------------|-----------------------|-------------|--------|--------------------|
D|--------------------|-2-------1-------------|-------------|--------|--------------------|
A|----------------2---|-----2-----------------|-------4-----|-0------|-0-----0----0-------|
E|-0-----0----0-------|-------------0-----0---|-0-----------|--------|----------------0---|


G|-----------------------|--------------------|--------|--------------------|-----------------------|
D|-----------------------|--------------------|--------|--------------------|-2-------1-------------|
A|-0-----------0-----0---|-0----0---0---2-----|--------|----------------2---|-----2-----------------|
E|-----0---4-------------|--------------------|-0------|-0-----0----0-------|-------------0-----0---|


G|-------------|--------|--------------------|-----------------------|--------------------|
D|-------------|--------|--------------------|-----------------------|--------------------|
A|-------4-----|-0------|-0-----0----0-------|-0-----------0-----0---|-0----0---0---2-----|
E|-0-----------|--------|----------------0---|-----0---4-------------|--------------------|


G|--------|--------|---------------------|--------|--------|
D|--------|--------|---------------------|--------|--------|
A|--------|--------|---------------------|--------|--------|
E|-0------|-0------|-0-------------------|--------|--------|


Tablature Viewer

Tablature di atas menggunakan tablature viewer yang dapat dimainkan, dapat bersuara layaknya menggunakan aplikasi Tablature seperti TuxGuitar atau Guitar Pro, jika menggunakan smartphone, saran kami gunakan layar landscape atau mode tampilan desktop. Untuk tablature yang berisi banyak instrumen, silahkan pilih instrumen di sebelah kiri.

Tentang Tablature

Tablature atau tabulature, atau tab gitar adalah bentuk notasi musik yang menunjukkan penjarian instrumen daripada nada musik.

Tab gitar di atas khusus hanya bisa dibaca untuk gitar, tidak bisa untuk instrumen musik lainnya. Cara membacanya adalah baris paling atas tablature merupakan senar paling kecil atau paling bawah, sedangkan angka pada garis adalah posisi jari kiri saat senar dipetik.

  e|---0---1---3---
  B|---0---1---0---
  G|---1---2---0---
  D|---2---3---0---
  A|---2---3---2---
  E|---0---1---3---
       E   F   G

Teknik Gitar dalam Tablature

Ada teknik khusus untuk memainkan gitar yang hanya berlaku untuk gitar, ini juga disimbolkan dalam tablature, berikut listnya:

Teknik Simbol Tab
Fret hand muting x
Palm-muting P.M.
Slide up /
Slide down \
Hammer-ons h
Pull-offs p
Trills tr~~~~~~~~
Bends b
Bend and release 5b7r9
Pre-bend and release p
Vibrato ~~~~~~~~~~~~~
Upstrokes ^
Downstrokes V
Natural harmonics <5>
Artificial harmonics A.H.
Tapped Harmonics 0(12)
Pinch Harmonics P.H.
Ghost Notes X atau ( )
Tapping T

Tablature di sini bukan dibuat oleh musisi aslinya, tentu saja kami tidak bisa menjamin keakuratan tablature ini, tapi kami selalu berusaha. Menulis tablature juga bukan pekerjaan mudah, jika tidak terlalu mirip mohon dimaklumi. Untuk suara gitar, kami sengaja tidak memakai sound yang lebih realistis seperti halnya RSE karena faktor ukuran file, semakin besar soundfont akan menyebabkan loading player semakin lama, belum lagi faktor koneksi internet yang bisa menyebabkan tablature viewer tidak bisa dimainkan jika soundfont terlalu besar.

Lihat Juga

Gitagram adalah portal referensi edukasi musik yang menyediakan not angka, not balok, tab gitar dan kunci gitar sebagai sarana belajar. Seperti halnya buku lagu, namun kami bisa diakses secara online via komputer dan smartphone, berbeda dengan buku yang umumnya berbayar, layanan kami gratis untuk siapa saja.
Kami menggunakan teknologi untuk menampilkan not angka secara akurat, not balok yang bisa dimainkan, dan tab gitar yang bisa dilihat secara online dan terformat rapi tanpa perlu instal software seperti Guitar Pro atau TuxGuitar.

Mengapa Harus Kami?

Memang ada banyak website atau aplikasi yang menampilkan chord gitar, dengan database lagu yang berjumlah puluhan ribu, tapi setelah kami cek, ternyata banyak kunci gitar yang tidak akurat, dan antar web saling menyalin satu sama lain. Hal tersebut bisa jadi karena pemilik websitenya hanya mengutamakan kuantitas konten, tanpa memikirkan keakuratan chord gitar, atau bahkan tidak tahu mengenai teori musik.
Perbedaan kami dengan situs chord gitar pada umumnya adalah: orang di balik layar kami adalah seorang musisi, bisa aransemen musik, bisa menulis notasi angka, not balok maupun tablature, maka tentu saja untuk membaca chord gitar saja pastinya lebih mudah daripada menulis partitur.

Webmaster kami juga berusaha menampilkan teknologi musik yang bisa dilihat dan dimainkan di web browser PC maupun mobile, tak perlu instal software khusus musik untuk membaca partitur dan tablature yang ada di sini.
Chord Gitar dengan Diagram Lirik dan kunci gitar dengan diagram chord gitar untuk memudahkan belajar.
Not Angka Terformat Rapi Dengan penulisan khusus standar not angka (bukan cuma angka saja)
Notasi Balok Interaktif Seperti halnya menggunakan software khusus partitur
Tablature Gitar Interaktif Tablature Gitar, Bass dan instrumen musik lainnya yang bisa dimainkan dan dicetak

Konten yang ada di sini hanya sebagai media pembelajaran dan sebagai referensi, kami tidak bisa menjamin 100% akurat meskipun kami sudah berusaha seakurat mungkin. Not Angka, chord gitar dan tab gitar bukan ditulis langsung oleh pencipta lagunya, tapi dari kontributor kami dan dari berbagai sumber. Berdasarkan apa yang kami dengar lalu menuliskannya semampu kami, tentu saja kami tidak bisa 100% akurat terutama saat membuat Tab Gitar, wajar jika ada perbedaan posisi jari antara gitaris asli dan tablature yang ada di sini
Kami tidak menampilkan konten berupa audio, video serta konten berhak cipta lainnya. Jika anda ingin mendengar salah satu lagu yang chord gitar atau tablaturenya ada di sini, silahkan dengarkan via saluran resminya seperti via YouTube, JOOX, Spotify dll.


GitagramKontenFeedback
Tentang KamiRekomendasiHubungi Kami
Privacy PolicyTangga LaguRequest
Syarat dan KetentuanTerbaruSubmit
Copyright: All lyrics are property and copyright of their owners. All lyrics provided for educational purposes and personal use only.
tab-gitar/akhirnya-ku-menemukanmu-dmasiv.txt · Terakhir diubah: 2021/09/21 15:10 oleh Arya
Browse:A B C D E FG HI JK LM NOP QR S T U VW XY Z