Genit - Tipe-X

Artis Tipe-X
Penulis Lagu Tipe-X
Pilihan TablatureTab Gitar Versi Pro - ASCII Tablature

Tab Gitar Versi Pro

Gitagram Tab Player loading
0%
-
00:00 / 00:00

Download Guitar Pro Tab

Jika anda memiliki software/aplikasi Guitar Pro atau TuxGuitar, kamu bisa download file tablature Genit Tipe X berformat Guitar Pro di sini.

FYI: Guitar Pro adalah aplikasi berbayar yang tersedia untuk berbagai platform seperti Windows, MacOS, Android dan iOS. Sedangkan TuxGuitar adalah aplikasi gratis yang tersedia untuk platform Windows, Linux dan Android

Format GP5 (Guitar Pro 5 Tablature)
Tab by Komang Bagus Wiyana Sakti
Downloadgenit-tipe-x.gp5

ASCII Tablature

Tablature versi teks yang umum digunakan pada gitar.

Track 2: Guitar 1

E|---------------------------------|---------------------------------|---------------------------------|
B|---------------------------------|---------------------------------|---------------------------------|
G|---------------------------------|-7---7---7---7---7---7---7---7---|---------------------------------|
D|-5---5---5---5---7---7---7---7---|-7---7---7---7---7---7---7---7---|-5---5---5---5---7---7---7---7---|
A|-5---5---5---5---7---7---7---7---|-5---5---5---5---5---5---5---5---|-5---5---5---5---7---7---7---7---|
E|-3---3---3---3---5---5---5---5---|---------------------------------|-3---3---3---3---5---5---5---5---|


E|---------------------------------|---------------------------------|---------------------------------|
B|---------------------------------|---------------------------------|---------------------------------|
G|-7---7---7---7---7---7---7---7---|---------------------------------|-7---7---7---7---7---7---7---7---|
D|-7---7---7---7---7---7---7---7---|-5---5---5---5---7---7---7---7---|-7---7---7---7---7---7---7---7---|
A|-5---5---5---5---5---5---5---5---|-5---5---5---5---7---7---7---7---|-5---5---5---5---5---5---5---5---|
E|---------------------------------|-3---3---3---3---5---5---5---5---|---------------------------------|


E|---------------------------------|---------------------------------|---------------------------------|
B|---------------------------------|---------------------------------|---------------------------------|
G|---------------------------------|-7---7---7---7---7---7---7---7---|---------------------------------|
D|-5---5---5---5---7---7---7---7---|-7---7---7---7---7---7---7---7---|-5------5------5---7----5----7---|
A|-5---5---5---5---7---7---7---7---|-5---5---5---5---5---5---5---5---|-5------5------5---7----5----7---|
E|-3---3---3---3---5---5---5---5---|---------------------------------|-3------3------3---5----3----5---|


E|----------------------|-----3---------3---------5---------5-----|-----5---------5---------5---------5-----|
B|----------------------|-----3---------3---------5---------5-----|-----7---------7---------7---------7-----|
G|-7--------------------|-----4---------4---------6---------6-----|-----7---------7---------7---------7-----|
D|-7--------------------|-----------------------------------------|-----------------------------------------|
A|-5--------------------|-----------------------------------------|-----------------------------------------|
E|----------------------|-----------------------------------------|-----------------------------------------|


E|-----3---------3---------5---------5-----|-----5---------5---------5---------5-----|
B|-----3---------3---------5---------5-----|-----7---------7---------7---------7-----|
G|-----4---------4---------6---------6-----|-----7---------7---------7---------7-----|
D|-----------------------------------------|-----------------------------------------|
A|-----------------------------------------|-----------------------------------------|
E|-----------------------------------------|-----------------------------------------|


E|-----3---------3---------5---------5-----|-----5---------5---------5---------5-----|
B|-----3---------3---------5---------5-----|-----7---------7---------7---------7-----|
G|-----4---------4---------6---------6-----|-----7---------7---------7---------7-----|
D|-----------------------------------------|-----------------------------------------|
A|-----------------------------------------|-----------------------------------------|
E|-----------------------------------------|-----------------------------------------|


E|-3------3------3---5----3----5---|-5--------------------|-----3---------3---------5---------5-----|
B|-3------3------3---5----3----5---|-7--------------------|-----3---------3---------5---------5-----|
G|-4------4------4---6----4----6---|-7--------------------|-----4---------4---------6---------6-----|
D|---------------------------------|----------------------|-----------------------------------------|
A|---------------------------------|----------------------|-----------------------------------------|
E|---------------------------------|----------------------|-----------------------------------------|


E|-----5---------5---------5---------5-----|-----3---------3---------5---------5-----|
B|-----7---------7---------7---------7-----|-----3---------3---------5---------5-----|
G|-----7---------7---------7---------7-----|-----4---------4---------6---------6-----|
D|-----------------------------------------|-----------------------------------------|
A|-----------------------------------------|-----------------------------------------|
E|-----------------------------------------|-----------------------------------------|


E|-----5---------5---------5---------5-----|-----3---------3---------5---------5-----|
B|-----7---------7---------7---------7-----|-----3---------3---------5---------5-----|
G|-----7---------7---------7---------7-----|-----4---------4---------6---------6-----|
D|-----------------------------------------|-----------------------------------------|
A|-----------------------------------------|-----------------------------------------|
E|-----------------------------------------|-----------------------------------------|


E|-----5---------5---------5---------5-----|-3------3------3---5----3----5---|-5--------------------|
B|-----7---------7---------7---------7-----|-3------3------3---5----3----5---|-7--------------------|
G|-----7---------7---------7---------7-----|-4------4------4---6----4----6---|-7--------------------|
D|-----------------------------------------|---------------------------------|----------------------|
A|-----------------------------------------|---------------------------------|----------------------|
E|-----------------------------------------|---------------------------------|----------------------|


E|-----3---------3---------5---------5-----|-----5---------5---------5---------5-----|
B|-----3---------3---------5---------5-----|-----7---------7---------7---------7-----|
G|-----4---------4---------6---------6-----|-----7---------7---------7---------7-----|
D|-----------------------------------------|-----------------------------------------|
A|-----------------------------------------|-----------------------------------------|
E|-----------------------------------------|-----------------------------------------|


E|-----3---------3---------5---------5-----|-----5---------5---------5---------5-----|
B|-----3---------3---------5---------5-----|-----7---------7---------7---------7-----|
G|-----4---------4---------6---------6-----|-----7---------7---------7---------7-----|
D|-----------------------------------------|-----------------------------------------|
A|-----------------------------------------|-----------------------------------------|
E|-----------------------------------------|-----------------------------------------|


E|-----3---------3---------5---------5-----|-----5---------5---------5---------5-----|
B|-----3---------3---------5---------5-----|-----7---------7---------7---------7-----|
G|-----4---------4---------6---------6-----|-----7---------7---------7---------7-----|
D|-----------------------------------------|-----------------------------------------|
A|-----------------------------------------|-----------------------------------------|
E|-----------------------------------------|-----------------------------------------|


E|-3------3------3---5----3----5---|-5--------------------|-----3---------3---------5---------5-----|
B|-3------3------3---5----3----5---|-7--------------------|-----3---------3---------5---------5-----|
G|-4------4------4---6----4----6---|-7--------------------|-----4---------4---------6---------6-----|
D|---------------------------------|----------------------|-----------------------------------------|
A|---------------------------------|----------------------|-----------------------------------------|
E|---------------------------------|----------------------|-----------------------------------------|


E|-----5---------5---------5---------5-----|-----3---------3---------5---------5-----|
B|-----7---------7---------7---------7-----|-----3---------3---------5---------5-----|
G|-----7---------7---------7---------7-----|-----4---------4---------6---------6-----|
D|-----------------------------------------|-----------------------------------------|
A|-----------------------------------------|-----------------------------------------|
E|-----------------------------------------|-----------------------------------------|


E|-----5---------5---------5---------5-----|-----3---------3---------5---------5-----|
B|-----7---------7---------7---------7-----|-----3---------3---------5---------5-----|
G|-----7---------7---------7---------7-----|-----4---------4---------6---------6-----|
D|-----------------------------------------|-----------------------------------------|
A|-----------------------------------------|-----------------------------------------|
E|-----------------------------------------|-----------------------------------------|


E|-----5---------5---------5---------5-----|-3------3------3---5----3----5---|-5--------------------|
B|-----7---------7---------7---------7-----|-3------3------3---5----3----5---|-7--------------------|
G|-----7---------7---------7---------7-----|-4------4------4---6----4----6---|-7--------------------|
D|-----------------------------------------|---------------------------------|----------------------|
A|-----------------------------------------|---------------------------------|----------------------|
E|-----------------------------------------|---------------------------------|----------------------|


E|-----3---------3---------5---------5-----|-----5---------5---------5---------5-----|
B|-----3---------3---------5---------5-----|-----7---------7---------7---------7-----|
G|-----4---------4---------6---------6-----|-----7---------7---------7---------7-----|
D|-----------------------------------------|-----------------------------------------|
A|-----------------------------------------|-----------------------------------------|
E|-----------------------------------------|-----------------------------------------|


E|-----3---------3---------5---------5-----|-----5---------5---------5---------5-----|
B|-----3---------3---------5---------5-----|-----7---------7---------7---------7-----|
G|-----4---------4---------6---------6-----|-----7---------7---------7---------7-----|
D|-----------------------------------------|-----------------------------------------|
A|-----------------------------------------|-----------------------------------------|
E|-----------------------------------------|-----------------------------------------|


E|-----3---------3---------5---------5-----|-----5---------5---------5---------5-----|
B|-----3---------3---------5---------5-----|-----7---------7---------7---------7-----|
G|-----4---------4---------6---------6-----|-----7---------7---------7---------7-----|
D|-----------------------------------------|-----------------------------------------|
A|-----------------------------------------|-----------------------------------------|
E|-----------------------------------------|-----------------------------------------|


E|-3------3------3---5----3----5---|-5--------------------|-3------3------3---5----3----5---|
B|-3------3------3---5----3----5---|-7--------------------|-3------3------3---5----3----5---|
G|-4------4------4---6----4----6---|-7--------------------|-4------4------4---6----4----6---|
D|---------------------------------|----------------------|---------------------------------|
A|---------------------------------|----------------------|---------------------------------|
E|---------------------------------|----------------------|---------------------------------|


E|--------|---------------------------------|---------------------------------|---------------------------------|
B|--------|---------------------------------|---------------------------------|---------------------------------|
G|-7------|---------------------------------|-7---7---7---7---7---7---7---7---|---------------------------------|
D|-7------|-5---5---5---5---7---7---7---7---|-7---7---7---7---7---7---7---7---|-5---5---5---5---7---7---7---7---|
A|-5------|-5---5---5---5---7---7---7---7---|-5---5---5---5---5---5---5---5---|-5---5---5---5---7---7---7---7---|
E|--------|-3---3---3---3---5---5---5---5---|---------------------------------|-3---3---3---3---5---5---5---5---|


E|---------------------------------|---------------------------------|---------------------------------|
B|---------------------------------|---------------------------------|---------------------------------|
G|-7---7---7---7---7---7---7---7---|---------------------------------|-7---7---7---7---7---7---7---7---|
D|-7---7---7---7---7---7---7---7---|-5---5---5---5---7---7---7---7---|-7---7---7---7---7---7---7---7---|
A|-5---5---5---5---5---5---5---5---|-5---5---5---5---7---7---7---7---|-5---5---5---5---5---5---5---5---|
E|---------------------------------|-3---3---3---3---5---5---5---5---|---------------------------------|


E|---------------------------------|---------------------------------|---------------------------------|
B|---------------------------------|---------------------------------|---------------------------------|
G|---------------------------------|-7---7---7---7---7---7---7---7---|---------------------------------|
D|-5---5---5---5---7---7---7---7---|-7---7---7---7---7---7---7---7---|-5---5---5---5---7---7---7---7---|
A|-5---5---5---5---7---7---7---7---|-5---5---5---5---5---5---5---5---|-5---5---5---5---7---7---7---7---|
E|-3---3---3---3---5---5---5---5---|---------------------------------|-3---3---3---3---5---5---5---5---|


E|---------------------------------|---------------------------------|----------------------|
B|---------------------------------|---------------------------------|----------------------|
G|-7---7---7---7---7---7---7---7---|---------------------------------|-7--------------------|
D|-7---7---7---7---7---7---7---7---|-5------5------5---7----5----7---|-7--------------------|
A|-5---5---5---5---5---5---5---5---|-5------5------5---7----5----7---|-5--------------------|
E|---------------------------------|-3------3------3---5----3----5---|----------------------|


E|-----3---------3---------5---------5-----|-----5---------5---------5---------5-----|
B|-----3---------3---------5---------5-----|-----7---------7---------7---------7-----|
G|-----4---------4---------6---------6-----|-----7---------7---------7---------7-----|
D|-----------------------------------------|-----------------------------------------|
A|-----------------------------------------|-----------------------------------------|
E|-----------------------------------------|-----------------------------------------|


E|-----3---------3---------5---------5-----|-----5---------5---------5---------5-----|
B|-----3---------3---------5---------5-----|-----7---------7---------7---------7-----|
G|-----4---------4---------6---------6-----|-----7---------7---------7---------7-----|
D|-----------------------------------------|-----------------------------------------|
A|-----------------------------------------|-----------------------------------------|
E|-----------------------------------------|-----------------------------------------|


E|-----3---------3---------5---------5-----|-----5---------5---------5---------5-----|
B|-----3---------3---------5---------5-----|-----7---------7---------7---------7-----|
G|-----4---------4---------6---------6-----|-----7---------7---------7---------7-----|
D|-----------------------------------------|-----------------------------------------|
A|-----------------------------------------|-----------------------------------------|
E|-----------------------------------------|-----------------------------------------|


E|-3------3------3---5----3----5---|-5--------------------|-----3---------3---------5---------5-----|
B|-3------3------3---5----3----5---|-7--------------------|-----3---------3---------5---------5-----|
G|-4------4------4---6----4----6---|-7--------------------|-----4---------4---------6---------6-----|
D|---------------------------------|----------------------|-----------------------------------------|
A|---------------------------------|----------------------|-----------------------------------------|
E|---------------------------------|----------------------|-----------------------------------------|


E|-----5---------5---------5---------5-----|-----3---------3---------5---------5-----|
B|-----7---------7---------7---------7-----|-----3---------3---------5---------5-----|
G|-----7---------7---------7---------7-----|-----4---------4---------6---------6-----|
D|-----------------------------------------|-----------------------------------------|
A|-----------------------------------------|-----------------------------------------|
E|-----------------------------------------|-----------------------------------------|


E|-----5---------5---------5---------5-----|-----3---------3---------5---------5-----|
B|-----7---------7---------7---------7-----|-----3---------3---------5---------5-----|
G|-----7---------7---------7---------7-----|-----4---------4---------6---------6-----|
D|-----------------------------------------|-----------------------------------------|
A|-----------------------------------------|-----------------------------------------|
E|-----------------------------------------|-----------------------------------------|


E|-----5---------5---------5---------5-----|-3------3------3---5----3----5---|-5--------------------|
B|-----7---------7---------7---------7-----|-3------3------3---5----3----5---|-7--------------------|
G|-----7---------7---------7---------7-----|-4------4------4---6----4----6---|-7--------------------|
D|-----------------------------------------|---------------------------------|----------------------|
A|-----------------------------------------|---------------------------------|----------------------|
E|-----------------------------------------|---------------------------------|----------------------|


E|-----3---------3---------5---------5-----|-----5---------5---------5---------5-----|
B|-----3---------3---------5---------5-----|-----7---------7---------7---------7-----|
G|-----4---------4---------6---------6-----|-----7---------7---------7---------7-----|
D|-----------------------------------------|-----------------------------------------|
A|-----------------------------------------|-----------------------------------------|
E|-----------------------------------------|-----------------------------------------|


E|-----3---------3---------5---------5-----|-----5---------5---------5---------5-----|
B|-----3---------3---------5---------5-----|-----7---------7---------7---------7-----|
G|-----4---------4---------6---------6-----|-----7---------7---------7---------7-----|
D|-----------------------------------------|-----------------------------------------|
A|-----------------------------------------|-----------------------------------------|
E|-----------------------------------------|-----------------------------------------|


E|-----3---------3---------5---------5-----|-----5---------5---------5---------5-----|
B|-----3---------3---------5---------5-----|-----7---------7---------7---------7-----|
G|-----4---------4---------6---------6-----|-----7---------7---------7---------7-----|
D|-----------------------------------------|-----------------------------------------|
A|-----------------------------------------|-----------------------------------------|
E|-----------------------------------------|-----------------------------------------|


E|-3------3------3---5----3----5---|-5--------------------|-3------3------3---5----3----5---|
B|-3------3------3---5----3----5---|-7--------------------|-3------3------3---5----3----5---|
G|-4------4------4---6----4----6---|-7--------------------|-4------4------4---6----4----6---|
D|---------------------------------|----------------------|---------------------------------|
A|---------------------------------|----------------------|---------------------------------|
E|---------------------------------|----------------------|---------------------------------|


E|--------|---------------------------------|---------------------------------|---------------------------------|
B|--------|---------------------------------|---------------------------------|---------------------------------|
G|-7------|---------------------------------|-7---7---7---7---7---7---7---7---|---------------------------------|
D|-7------|-5---5---5---5---7---7---7---7---|-7---7---7---7---7---7---7---7---|-5---5---5---5---7---7---7---7---|
A|-5------|-5---5---5---5---7---7---7---7---|-5---5---5---5---5---5---5---5---|-5---5---5---5---7---7---7---7---|
E|--------|-3---3---3---3---5---5---5---5---|---------------------------------|-3---3---3---3---5---5---5---5---|


E|---------------------------------|---------------------------------|---------------------------------|
B|---------------------------------|---------------------------------|---------------------------------|
G|-7---7---7---7---7---7---7---7---|---------------------------------|-7---7---7---7---7---7---7---7---|
D|-7---7---7---7---7---7---7---7---|-5---5---5---5---7---7---7---7---|-7---7---7---7---7---7---7---7---|
A|-5---5---5---5---5---5---5---5---|-5---5---5---5---7---7---7---7---|-5---5---5---5---5---5---5---5---|
E|---------------------------------|-3---3---3---3---5---5---5---5---|---------------------------------|


E|---------------------------------|---------------------------------|---------------------------------|
B|---------------------------------|---------------------------------|---------------------------------|
G|---------------------------------|-7---7---7---7---7---7---7---7---|---------------------------------|
D|-5---5---5---5---7---7---7---7---|-7---7---7---7---7---7---7---7---|-5------5------5---7----5----7---|
A|-5---5---5---5---7---7---7---7---|-5---5---5---5---5---5---5---5---|-5------5------5---7----5----7---|
E|-3---3---3---3---5---5---5---5---|---------------------------------|-3------3------3---5----3----5---|


E|----------------------|-----3---------3---------5---------5-----|-----5---------5---------5---------5-----|
B|----------------------|-----3---------3---------5---------5-----|-----7---------7---------7---------7-----|
G|-7--------------------|-----4---------4---------6---------6-----|-----7---------7---------7---------7-----|
D|-7--------------------|-----------------------------------------|-----------------------------------------|
A|-5--------------------|-----------------------------------------|-----------------------------------------|
E|----------------------|-----------------------------------------|-----------------------------------------|


E|-----3---------3---------5---------5-----|-----5---------5---------5---------5-----|
B|-----3---------3---------5---------5-----|-----7---------7---------7---------7-----|
G|-----4---------4---------6---------6-----|-----7---------7---------7---------7-----|
D|-----------------------------------------|-----------------------------------------|
A|-----------------------------------------|-----------------------------------------|
E|-----------------------------------------|-----------------------------------------|


E|-----3---------3---------5---------5-----|-----5---------5---------5---------5-----|
B|-----3---------3---------5---------5-----|-----7---------7---------7---------7-----|
G|-----4---------4---------6---------6-----|-----7---------7---------7---------7-----|
D|-----------------------------------------|-----------------------------------------|
A|-----------------------------------------|-----------------------------------------|
E|-----------------------------------------|-----------------------------------------|


E|-3------3------3---5----3----5---|-5--------------------|-3------3------3---5----3----5---|
B|-3------3------3---5----3----5---|-7--------------------|-3------3------3---5----3----5---|
G|-4------4------4---6----4----6---|-7--------------------|-4------4------4---6----4----6---|
D|---------------------------------|----------------------|---------------------------------|
A|---------------------------------|----------------------|---------------------------------|
E|---------------------------------|----------------------|---------------------------------|


E|-5------|
B|-7------|
G|-7------|
D|--------|
A|--------|
E|--------|





Track 3: Guitar 2

E|--------|---------------------------|--------|---------------------------|--------|
B|--------|---------------------------|--------|---------------------------|--------|
G|--------|------7---9---11--9---7----|--------|------11--9---7---9---11---|--------|
D|--------|---------------------------|--------|---------------------------|--------|
A|--------|------5---7---9---7---5----|--------|------9---7---5---7---9----|--------|
E|--------|---------------------------|--------|---------------------------|--------|


E|---------------------------|--------|---------------------------|--------|--------|
B|---------------------------|--------|---------------------------|--------|--------|
G|------7---9---11--9---7----|--------|------11--9---7---9---11---|--------|--------|
D|---------------------------|--------|---------------------------|--------|--------|
A|------5---7---9---7---5----|--------|------9---7---5---7---9----|--------|--------|
E|---------------------------|--------|---------------------------|--------|--------|


E|-----3---------3---------5---------5-----|-----5---------5---------5---------5-----|
B|-----3---------3---------5---------5-----|-----7---------7---------7---------7-----|
G|-----4---------4---------6---------6-----|-----7---------7---------7---------7-----|
D|-----------------------------------------|-----------------------------------------|
A|-----------------------------------------|-----------------------------------------|
E|-----------------------------------------|-----------------------------------------|


E|-----3---------3---------5---------5-----|-----5---------5---------5---------5-----|
B|-----3---------3---------5---------5-----|-----7---------7---------7---------7-----|
G|-----4---------4---------6---------6-----|-----7---------7---------7---------7-----|
D|-----------------------------------------|-----------------------------------------|
A|-----------------------------------------|-----------------------------------------|
E|-----------------------------------------|-----------------------------------------|


E|-----3---------3---------5---------5-----|-----5---------5---------5---------5-----|
B|-----3---------3---------5---------5-----|-----7---------7---------7---------7-----|
G|-----4---------4---------6---------6-----|-----7---------7---------7---------7-----|
D|-----------------------------------------|-----------------------------------------|
A|-----------------------------------------|-----------------------------------------|
E|-----------------------------------------|-----------------------------------------|


E|-3------3------3---5----3----5---|-5--------------------|-----3---------3---------5---------5-----|
B|-3------3------3---5----3----5---|-7--------------------|-----3---------3---------5---------5-----|
G|-4------4------4---6----4----6---|-7--------------------|-----4---------4---------6---------6-----|
D|---------------------------------|----------------------|-----------------------------------------|
A|---------------------------------|----------------------|-----------------------------------------|
E|---------------------------------|----------------------|-----------------------------------------|


E|-----5---------5---------5---------5-----|-----3---------3---------5---------5-----|
B|-----7---------7---------7---------7-----|-----3---------3---------5---------5-----|
G|-----7---------7---------7---------7-----|-----4---------4---------6---------6-----|
D|-----------------------------------------|-----------------------------------------|
A|-----------------------------------------|-----------------------------------------|
E|-----------------------------------------|-----------------------------------------|


E|-----5---------5---------5---------5-----|-----3---------3---------5---------5-----|
B|-----7---------7---------7---------7-----|-----3---------3---------5---------5-----|
G|-----7---------7---------7---------7-----|-----4---------4---------6---------6-----|
D|-----------------------------------------|-----------------------------------------|
A|-----------------------------------------|-----------------------------------------|
E|-----------------------------------------|-----------------------------------------|


E|-----5---------5---------5---------5-----|-3------3------3---5----3----5---|-5--------------------|
B|-----7---------7---------7---------7-----|-3------3------3---5----3----5---|-7--------------------|
G|-----7---------7---------7---------7-----|-4------4------4---6----4----6---|-7--------------------|
D|-----------------------------------------|---------------------------------|----------------------|
A|-----------------------------------------|---------------------------------|----------------------|
E|-----------------------------------------|---------------------------------|----------------------|


E|-----3---------3---------5---------5-----|-----5---------5---------5---------5-----|
B|-----3---------3---------5---------5-----|-----7---------7---------7---------7-----|
G|-----4---------4---------6---------6-----|-----7---------7---------7---------7-----|
D|-----------------------------------------|-----------------------------------------|
A|-----------------------------------------|-----------------------------------------|
E|-----------------------------------------|-----------------------------------------|


E|-----3---------3---------5---------5-----|-----5---------5---------5---------5-----|
B|-----3---------3---------5---------5-----|-----7---------7---------7---------7-----|
G|-----4---------4---------6---------6-----|-----7---------7---------7---------7-----|
D|-----------------------------------------|-----------------------------------------|
A|-----------------------------------------|-----------------------------------------|
E|-----------------------------------------|-----------------------------------------|


E|-----3---------3---------5---------5-----|-----5---------5---------5---------5-----|
B|-----3---------3---------5---------5-----|-----7---------7---------7---------7-----|
G|-----4---------4---------6---------6-----|-----7---------7---------7---------7-----|
D|-----------------------------------------|-----------------------------------------|
A|-----------------------------------------|-----------------------------------------|
E|-----------------------------------------|-----------------------------------------|


E|-3------3------3---5----3----5---|-5--------------------|-----3---------3---------5---------5-----|
B|-3------3------3---5----3----5---|-7--------------------|-----3---------3---------5---------5-----|
G|-4------4------4---6----4----6---|-7--------------------|-----4---------4---------6---------6-----|
D|---------------------------------|----------------------|-----------------------------------------|
A|---------------------------------|----------------------|-----------------------------------------|
E|---------------------------------|----------------------|-----------------------------------------|


E|-----5---------5---------5---------5-----|-----3---------3---------5---------5-----|
B|-----7---------7---------7---------7-----|-----3---------3---------5---------5-----|
G|-----7---------7---------7---------7-----|-----4---------4---------6---------6-----|
D|-----------------------------------------|-----------------------------------------|
A|-----------------------------------------|-----------------------------------------|
E|-----------------------------------------|-----------------------------------------|


E|-----5---------5---------5---------5-----|-----3---------3---------5---------5-----|
B|-----7---------7---------7---------7-----|-----3---------3---------5---------5-----|
G|-----7---------7---------7---------7-----|-----4---------4---------6---------6-----|
D|-----------------------------------------|-----------------------------------------|
A|-----------------------------------------|-----------------------------------------|
E|-----------------------------------------|-----------------------------------------|


E|-----5---------5---------5---------5-----|-3------3------3---5----3----5---|-5--------------------|
B|-----7---------7---------7---------7-----|-3------3------3---5----3----5---|-7--------------------|
G|-----7---------7---------7---------7-----|-4------4------4---6----4----6---|-7--------------------|
D|-----------------------------------------|---------------------------------|----------------------|
A|-----------------------------------------|---------------------------------|----------------------|
E|-----------------------------------------|---------------------------------|----------------------|


E|-----3---------3---------5---------5-----|-----5---------5---------5---------5-----|
B|-----3---------3---------5---------5-----|-----7---------7---------7---------7-----|
G|-----4---------4---------6---------6-----|-----7---------7---------7---------7-----|
D|-----------------------------------------|-----------------------------------------|
A|-----------------------------------------|-----------------------------------------|
E|-----------------------------------------|-----------------------------------------|


E|-----3---------3---------5---------5-----|-----5---------5---------5---------5-----|
B|-----3---------3---------5---------5-----|-----7---------7---------7---------7-----|
G|-----4---------4---------6---------6-----|-----7---------7---------7---------7-----|
D|-----------------------------------------|-----------------------------------------|
A|-----------------------------------------|-----------------------------------------|
E|-----------------------------------------|-----------------------------------------|


E|-----3---------3---------5---------5-----|-----5---------5---------5---------5-----|
B|-----3---------3---------5---------5-----|-----7---------7---------7---------7-----|
G|-----4---------4---------6---------6-----|-----7---------7---------7---------7-----|
D|-----------------------------------------|-----------------------------------------|
A|-----------------------------------------|-----------------------------------------|
E|-----------------------------------------|-----------------------------------------|


E|-3------3------3---5----3----5---|-5--------------------|-3------3------3---5----3----5---|
B|-3------3------3---5----3----5---|-7--------------------|-3------3------3---5----3----5---|
G|-4------4------4---6----4----6---|-7--------------------|-4------4------4---6----4----6---|
D|---------------------------------|----------------------|---------------------------------|
A|---------------------------------|----------------------|---------------------------------|
E|---------------------------------|----------------------|---------------------------------|


E|-5------|--------|---------------------------|--------|---------------------------|
B|-7------|--------|---------------------------|--------|---------------------------|
G|-7------|--------|------7---9---11--9---7----|--------|------11--9---7---9---11---|
D|--------|--------|---------------------------|--------|---------------------------|
A|--------|--------|------5---7---9---7---5----|--------|------9---7---5---7---9----|
E|--------|--------|---------------------------|--------|---------------------------|


E|--------|---------------------------|--------|---------------------------|--------|
B|--------|---------------------------|--------|---------------------------|--------|
G|--------|------7---9---11--9---7----|--------|------11--9---7---9---11---|--------|
D|--------|---------------------------|--------|---------------------------|--------|
A|--------|------5---7---9---7---5----|--------|------9---7---5---7---9----|--------|
E|--------|---------------------------|--------|---------------------------|--------|


E|---------------------------|--------|--------|-----3---------3---------5---------5-----|
B|---------------------------|--------|--------|-----3---------3---------5---------5-----|
G|------7---9---11--9---7----|--------|--------|-----4---------4---------6---------6-----|
D|---------------------------|--------|--------|-----------------------------------------|
A|------5---7---9---7---5----|--------|--------|-----------------------------------------|
E|---------------------------|--------|--------|-----------------------------------------|


E|-----5---------5---------5---------5-----|-----3---------3---------5---------5-----|
B|-----7---------7---------7---------7-----|-----3---------3---------5---------5-----|
G|-----7---------7---------7---------7-----|-----4---------4---------6---------6-----|
D|-----------------------------------------|-----------------------------------------|
A|-----------------------------------------|-----------------------------------------|
E|-----------------------------------------|-----------------------------------------|


E|-----5---------5---------5---------5-----|-----3---------3---------5---------5-----|
B|-----7---------7---------7---------7-----|-----3---------3---------5---------5-----|
G|-----7---------7---------7---------7-----|-----4---------4---------6---------6-----|
D|-----------------------------------------|-----------------------------------------|
A|-----------------------------------------|-----------------------------------------|
E|-----------------------------------------|-----------------------------------------|


E|-----5---------5---------5---------5-----|-3------3------3---5----3----5---|-5--------------------|
B|-----7---------7---------7---------7-----|-3------3------3---5----3----5---|-7--------------------|
G|-----7---------7---------7---------7-----|-4------4------4---6----4----6---|-7--------------------|
D|-----------------------------------------|---------------------------------|----------------------|
A|-----------------------------------------|---------------------------------|----------------------|
E|-----------------------------------------|---------------------------------|----------------------|


E|-----3---------3---------5---------5-----|-----5---------5---------5---------5-----|
B|-----3---------3---------5---------5-----|-----7---------7---------7---------7-----|
G|-----4---------4---------6---------6-----|-----7---------7---------7---------7-----|
D|-----------------------------------------|-----------------------------------------|
A|-----------------------------------------|-----------------------------------------|
E|-----------------------------------------|-----------------------------------------|


E|-----3---------3---------5---------5-----|-----5---------5---------5---------5-----|
B|-----3---------3---------5---------5-----|-----7---------7---------7---------7-----|
G|-----4---------4---------6---------6-----|-----7---------7---------7---------7-----|
D|-----------------------------------------|-----------------------------------------|
A|-----------------------------------------|-----------------------------------------|
E|-----------------------------------------|-----------------------------------------|


E|-----3---------3---------5---------5-----|-----5---------5---------5---------5-----|
B|-----3---------3---------5---------5-----|-----7---------7---------7---------7-----|
G|-----4---------4---------6---------6-----|-----7---------7---------7---------7-----|
D|-----------------------------------------|-----------------------------------------|
A|-----------------------------------------|-----------------------------------------|
E|-----------------------------------------|-----------------------------------------|


E|-3------3------3---5----3----5---|-5--------------------|-----3---------3---------5---------5-----|
B|-3------3------3---5----3----5---|-7--------------------|-----3---------3---------5---------5-----|
G|-4------4------4---6----4----6---|-7--------------------|-----4---------4---------6---------6-----|
D|---------------------------------|----------------------|-----------------------------------------|
A|---------------------------------|----------------------|-----------------------------------------|
E|---------------------------------|----------------------|-----------------------------------------|


E|-----5---------5---------5---------5-----|-----3---------3---------5---------5-----|
B|-----7---------7---------7---------7-----|-----3---------3---------5---------5-----|
G|-----7---------7---------7---------7-----|-----4---------4---------6---------6-----|
D|-----------------------------------------|-----------------------------------------|
A|-----------------------------------------|-----------------------------------------|
E|-----------------------------------------|-----------------------------------------|


E|-----5---------5---------5---------5-----|-----3---------3---------5---------5-----|
B|-----7---------7---------7---------7-----|-----3---------3---------5---------5-----|
G|-----7---------7---------7---------7-----|-----4---------4---------6---------6-----|
D|-----------------------------------------|-----------------------------------------|
A|-----------------------------------------|-----------------------------------------|
E|-----------------------------------------|-----------------------------------------|


E|-----5---------5---------5---------5-----|-3------3------3---5----3----5---|-5--------------------|
B|-----7---------7---------7---------7-----|-3------3------3---5----3----5---|-7--------------------|
G|-----7---------7---------7---------7-----|-4------4------4---6----4----6---|-7--------------------|
D|-----------------------------------------|---------------------------------|----------------------|
A|-----------------------------------------|---------------------------------|----------------------|
E|-----------------------------------------|---------------------------------|----------------------|


E|-3------3------3---5----3----5---|-5------|--------|---------------------------|
B|-3------3------3---5----3----5---|-7------|--------|---------------------------|
G|-4------4------4---6----4----6---|-7------|--------|------7---9---11--9---7----|
D|---------------------------------|--------|--------|---------------------------|
A|---------------------------------|--------|--------|------5---7---9---7---5----|
E|---------------------------------|--------|--------|---------------------------|


E|--------|---------------------------|--------|---------------------------|--------|
B|--------|---------------------------|--------|---------------------------|--------|
G|--------|------11--9---7---9---11---|--------|------7---9---11--9---7----|--------|
D|--------|---------------------------|--------|---------------------------|--------|
A|--------|------9---7---5---7---9----|--------|------5---7---9---7---5----|--------|
E|--------|---------------------------|--------|---------------------------|--------|


E|---------------------------|--------|--------|-----3---------3---------5---------5-----|
B|---------------------------|--------|--------|-----3---------3---------5---------5-----|
G|------11--9---7---9---11---|--------|--------|-----4---------4---------6---------6-----|
D|---------------------------|--------|--------|-----------------------------------------|
A|------9---7---5---7---9----|--------|--------|-----------------------------------------|
E|---------------------------|--------|--------|-----------------------------------------|


E|-----5---------5---------5---------5-----|-----3---------3---------5---------5-----|
B|-----7---------7---------7---------7-----|-----3---------3---------5---------5-----|
G|-----7---------7---------7---------7-----|-----4---------4---------6---------6-----|
D|-----------------------------------------|-----------------------------------------|
A|-----------------------------------------|-----------------------------------------|
E|-----------------------------------------|-----------------------------------------|


E|-----5---------5---------5---------5-----|-----3---------3---------5---------5-----|
B|-----7---------7---------7---------7-----|-----3---------3---------5---------5-----|
G|-----7---------7---------7---------7-----|-----4---------4---------6---------6-----|
D|-----------------------------------------|-----------------------------------------|
A|-----------------------------------------|-----------------------------------------|
E|-----------------------------------------|-----------------------------------------|


E|-----5---------5---------5---------5-----|-3------3------3---5----3----5---|-5--------------------|
B|-----7---------7---------7---------7-----|-3------3------3---5----3----5---|-7--------------------|
G|-----7---------7---------7---------7-----|-4------4------4---6----4----6---|-7--------------------|
D|-----------------------------------------|---------------------------------|----------------------|
A|-----------------------------------------|---------------------------------|----------------------|
E|-----------------------------------------|---------------------------------|----------------------|


E|-3------3------3---5----3----5---|-5------|
B|-3------3------3---5----3----5---|-7------|
G|-4------4------4---6----4----6---|-7------|
D|---------------------------------|--------|
A|---------------------------------|--------|
E|---------------------------------|--------|





Track 4: Bass

G|---------------------------------|---------------------------------|---------------------------------|
D|---------------------------------|---------------------------------|---------------------------------|
A|---------------------------------|-5---5---5---5---5---5---5---5---|---------------------------------|
E|-3---3---3---3---5---5---5---5---|---------------------------------|-3---3---3---3---5---5---5---5---|


G|---------------------------------|---------------------------------|---------------------------------|
D|---------------------------------|---------------------------------|---------------------------------|
A|-5---5---5---5---5---5---5---5---|---------------------------------|-5---5---5---5---5---5---5---5---|
E|---------------------------------|-3---3---3---3---5---5---5---5---|---------------------------------|


G|---------------------------------|---------------------------------|-----------------------------|
D|---------------------------------|---------------------------------|-----------------------------|
A|---------------------------------|-5---5---5---5---5---5---5---5---|-----------------------------|
E|-3---3---3---3---5---5---5---5---|---------------------------------|-3----3----3---5----3----5---|


G|------------------------------|---------------------------------|---------------------------------|
D|--------------4---5---6---7---|---------------------------------|-----7-------7-------4-------4---|
A|-5--------5-------------------|---------2---5-----------4---7---|-5-------4-------2-------2-------|
E|------------------------------|-3---3-----------5---5-----------|---------------------------------|


G|---------------------------------|---------------------------------|---------------------------------|
D|---------------------------------|-----7-------7-------4-------4---|---------------------------------|
A|---------2---5-----------4---7---|-5-------4-------2-------2-------|---------2---5-----------4---7---|
E|-3---3-----------5---5-----------|---------------------------------|-3---3-----------5---5-----------|


G|---------------------------------|-----------------------------|------------------------------|
D|-----7-------7-------4-------4---|-----------------------------|--------------4---5---6---7---|
A|-5-------4-------2-------2-------|------2----5--------4----7---|-5--------5-------------------|
E|---------------------------------|-3-------------5-------------|------------------------------|


G|---------------------------------|---------------------------------|---------------------------------|
D|---------------------------------|---------------------------------|---------------------------------|
A|---------2---5-----------4---7---|-5---5---5---7---9---7---5---9---|---------2---5-----------4---7---|
E|-3---3-----------5---5-----------|---------------------------------|-3---3-----------5---5-----------|


G|---------------------------------|---------------------------------|---------------------------------|
D|---------------------------------|---------------------------------|---------------------------------|
A|-5---5---5---7---9---7---5---9---|---------2---5-----------4---7---|-5---5---5---7---9---7---5---9---|
E|---------------------------------|-3---3-----------5---5-----------|---------------------------------|


G|-----------------------------|------------------------------|---------------------------------|
D|-----------------------------|--------------4---5---6---7---|---------------------------------|
A|------2----5--------4----7---|-5--------5-------------------|---------2---5-----------4---7---|
E|-3-------------5-------------|------------------------------|-3---3-----------5---5-----------|


G|---------------------------------|---------------------------------|---------------------------------|
D|-----7-------7-------4-------4---|---------------------------------|-----7-------7-------4-------4---|
A|-5-------4-------2-------2-------|---------2---5-----------4---7---|-5-------4-------2-------2-------|
E|---------------------------------|-3---3-----------5---5-----------|---------------------------------|


G|---------------------------------|---------------------------------|---------------------------------|
D|---------------------------------|-----7-------7-------4-------4---|---------------------------------|
A|---------2---5-----------4---7---|-5-------4-------2-------2-------|---------------------------------|
E|-3---3-----------5---5-----------|---------------------------------|-3------3------3---5----3----5---|


G|------------------------------|---------------------------------|---------------------------------|
D|--------------4---5---6---7---|---------------------------------|---------------------------------|
A|-5--------5-------------------|---------2---5-----------4---7---|-5---5---5---7---9---7---5---9---|
E|------------------------------|-3---3-----------5---5-----------|---------------------------------|


G|---------------------------------|---------------------------------|---------------------------------|
D|---------------------------------|---------------------------------|---------------------------------|
A|---------2---5-----------4---7---|-5---5---5---7---9---7---5---9---|---------2---5-----------4---7---|
E|-3---3-----------5---5-----------|---------------------------------|-3---3-----------5---5-----------|


G|---------------------------------|-----------------------------|------------------------------|
D|---------------------------------|-----------------------------|--------------4---5---6---7---|
A|-5---5---5---7---9---7---5---9---|------2----5--------4----7---|-5--------5-------------------|
E|---------------------------------|-3-------------5-------------|------------------------------|


G|---------------------------------|---------------------------------|---------------------------------|
D|---------------------------------|-----7-------7-------4-------4---|---------------------------------|
A|---------2---5-----------4---7---|-5-------4-------2-------2-------|---------2---5-----------4---7---|
E|-3---3-----------5---5-----------|---------------------------------|-3---3-----------5---5-----------|


G|---------------------------------|---------------------------------|---------------------------------|
D|-----7-------7-------4-------4---|---------------------------------|-----7-------7-------4-------4---|
A|-5-------4-------2-------2-------|---------2---5-----------4---7---|-5-------4-------2-------2-------|
E|---------------------------------|-3---3-----------5---5-----------|---------------------------------|


G|-----------------------------|------------------------------|-----------------------------|
D|-----------------------------|--------------4---5---6---7---|-----------------------------|
A|------2----5--------4----7---|-5--------5-------------------|------2----5--------4----7---|
E|-3-------------5-------------|------------------------------|-3-------------5-------------|


G|---------------------------------|---------------------------------|---------------------------------|
D|---------------------------------|---------------------------------|---------------------------------|
A|-5---5---5---5---5---5---5---5---|---------------------------------|-5---5---5---5---5---5---5---5---|
E|---------------------------------|-3---3---3---3---5---5---5---5---|---------------------------------|


G|---------------------------------|---------------------------------|---------------------------------|
D|---------------------------------|---------------------------------|---------------------------------|
A|---------------------------------|-5---5---5---5---5---5---5---5---|---------------------------------|
E|-3---3---3---3---5---5---5---5---|---------------------------------|-3---3---3---3---5---5---5---5---|


G|---------------------------------|---------------------------------|---------------------------------|
D|---------------------------------|---------------------------------|---------------------------------|
A|-5---5---5---5---5---5---5---5---|---------------------------------|-5---5---5---5---5---5---5---5---|
E|---------------------------------|-3---3---3---3---5---5---5---5---|---------------------------------|


G|---------------------------------|---------------------------------|-----------------------------|
D|---------------------------------|---------------------------------|-----------------------------|
A|---------------------------------|-5---5---5---5---5---5---5---5---|-----------------------------|
E|-3---3---3---3---5---5---5---5---|---------------------------------|-3----3----3---5----3----5---|


G|------------------------------|---------------------------------|---------------------------------|
D|--------------4---5---6---7---|---------------------------------|-----7-------7-------4-------4---|
A|-5--------5-------------------|---------2---5-----------4---7---|-5-------4-------2-------2-------|
E|------------------------------|-3---3-----------5---5-----------|---------------------------------|


G|---------------------------------|---------------------------------|---------------------------------|
D|---------------------------------|-----7-------7-------4-------4---|---------------------------------|
A|---------2---5-----------4---7---|-5-------4-------2-------2-------|---------2---5-----------4---7---|
E|-3---3-----------5---5-----------|---------------------------------|-3---3-----------5---5-----------|


G|---------------------------------|---------------------------------|------------------------------|
D|-----7-------7-------4-------4---|---------------------------------|--------------4---5---6---7---|
A|-5-------4-------2-------2-------|---------------------------------|-5--------5-------------------|
E|---------------------------------|-3------3------3---5----3----5---|------------------------------|


G|---------------------------------|---------------------------------|---------------------------------|
D|---------------------------------|---------------------------------|---------------------------------|
A|---------2---5-----------4---7---|-5---5---5---7---9---7---5---9---|---------2---5-----------4---7---|
E|-3---3-----------5---5-----------|---------------------------------|-3---3-----------5---5-----------|


G|---------------------------------|---------------------------------|---------------------------------|
D|---------------------------------|---------------------------------|---------------------------------|
A|-5---5---5---7---9---7---5---9---|---------2---5-----------4---7---|-5---5---5---7---9---7---5---9---|
E|---------------------------------|-3---3-----------5---5-----------|---------------------------------|


G|-----------------------------|------------------------------|---------------------------------|
D|-----------------------------|--------------4---5---6---7---|---------------------------------|
A|------2----5--------4----7---|-5--------5-------------------|---------2---5-----------4---7---|
E|-3-------------5-------------|------------------------------|-3---3-----------5---5-----------|


G|---------------------------------|---------------------------------|---------------------------------|
D|-----7-------7-------4-------4---|---------------------------------|-----7-------7-------4-------4---|
A|-5-------4-------2-------2-------|---------2---5-----------4---7---|-5-------4-------2-------2-------|
E|---------------------------------|-3---3-----------5---5-----------|---------------------------------|


G|---------------------------------|---------------------------------|-----------------------------|
D|---------------------------------|-----7-------7-------4-------4---|-----------------------------|
A|---------2---5-----------4---7---|-5-------4-------2-------2-------|------2----5--------4----7---|
E|-3---3-----------5---5-----------|---------------------------------|-3-------------5-------------|


G|------------------------------|-----------------------------|---------------------------------|
D|--------------4---5---6---7---|-----------------------------|---------------------------------|
A|-5--------5-------------------|------2----5--------4----7---|-5---5---5---5---5---5---5---5---|
E|------------------------------|-3-------------5-------------|---------------------------------|


G|---------------------------------|---------------------------------|---------------------------------|
D|---------------------------------|---------------------------------|---------------------------------|
A|---------------------------------|-5---5---5---5---5---5---5---5---|---------------------------------|
E|-3---3---3---3---5---5---5---5---|---------------------------------|-3---3---3---3---5---5---5---5---|


G|---------------------------------|---------------------------------|---------------------------------|
D|---------------------------------|---------------------------------|---------------------------------|
A|-5---5---5---5---5---5---5---5---|---------------------------------|-5---5---5---5---5---5---5---5---|
E|---------------------------------|-3---3---3---3---5---5---5---5---|---------------------------------|


G|---------------------------------|---------------------------------|-----------------------------|
D|---------------------------------|---------------------------------|-----------------------------|
A|---------------------------------|-5---5---5---5---5---5---5---5---|-----------------------------|
E|-3---3---3---3---5---5---5---5---|---------------------------------|-3----3----3---5----3----5---|


G|------------------------------|---------------------------------|---------------------------------|
D|--------------4---5---6---7---|---------------------------------|-----7-------7-------4-------4---|
A|-5--------5-------------------|---------2---5-----------4---7---|-5-------4-------2-------2-------|
E|------------------------------|-3---3-----------5---5-----------|---------------------------------|


G|---------------------------------|---------------------------------|---------------------------------|
D|---------------------------------|-----7-------7-------4-------4---|---------------------------------|
A|---------2---5-----------4---7---|-5-------4-------2-------2-------|---------2---5-----------4---7---|
E|-3---3-----------5---5-----------|---------------------------------|-3---3-----------5---5-----------|


G|---------------------------------|-----------------------------|------------------------------|
D|-----7-------7-------4-------4---|-----------------------------|--------------4---5---6---7---|
A|-5-------4-------2-------2-------|------2----5--------4----7---|-5--------5-------------------|
E|---------------------------------|-3-------------5-------------|------------------------------|


G|-----------------------------|--------|
D|-----------------------------|--------|
A|------2----5--------4----7---|-5------|
E|-3-------------5-------------|--------|





Track 5: Trombone

E|--------|--------|--------|--------|--------|--------|--------|--------|--------|
B|--------|--------|--------|--------|--------|--------|--------|--------|--------|
G|--------|--------|--------|--------|--------|--------|--------|--------|--------|
D|--------|--------|--------|--------|--------|--------|--------|--------|--------|
A|--------|--------|--------|--------|--------|--------|--------|--------|--------|
E|--------|--------|--------|--------|--------|--------|--------|--------|--------|


E|--------|-----------------|---------------------|-----------------|---------------------|
B|--------|-----------------|-3----2----0---------|-----------------|-3----2----0---------|
G|--------|-0-----2---------|----------------2----|-0-----2---------|----------------2----|
D|--------|-----------------|---------------------|-----------------|---------------------|
A|--------|-----------------|---------------------|-----------------|---------------------|
E|--------|-----------------|---------------------|-----------------|---------------------|


E|-----------------|---------------------|-----------------------------|-------------|
B|-----------------|-3----2----0---------|-----------------------------|-3-----------|
G|-0-----2---------|----------------2----|-0----0----0---2----0----2---|-------------|
D|-----------------|---------------------|-----------------------------|-------------|
A|-----------------|---------------------|-----------------------------|-------------|
E|-----------------|---------------------|-----------------------------|-------------|


E|--------|--------|--------|--------|--------|--------|--------|--------|-----------------|
B|--------|--------|--------|--------|--------|--------|--------|--------|-----------------|
G|--------|--------|--------|--------|--------|--------|--------|--------|-0-----2---------|
D|--------|--------|--------|--------|--------|--------|--------|--------|-----------------|
A|--------|--------|--------|--------|--------|--------|--------|--------|-----------------|
E|--------|--------|--------|--------|--------|--------|--------|--------|-----------------|


E|---------------------|-----------------|---------------------|-----------------|
B|-3----2----0---------|-----------------|-3----2----0---------|-----------------|
G|----------------2----|-0-----2---------|----------------2----|-0-----2---------|
D|---------------------|-----------------|---------------------|-----------------|
A|---------------------|-----------------|---------------------|-----------------|
E|---------------------|-----------------|---------------------|-----------------|


E|---------------------|-----------------------------|-------------|--------|--------|
B|-3----2----0---------|-----------------------------|-3-----------|--------|--------|
G|----------------2----|-0----0----0---2----0----2---|-------------|--------|--------|
D|---------------------|-----------------------------|-------------|--------|--------|
A|---------------------|-----------------------------|-------------|--------|--------|
E|---------------------|-----------------------------|-------------|--------|--------|


E|--------|--------|--------|--------|--------|--------|-----------------|---------------------|
B|--------|--------|--------|--------|--------|--------|-----------------|-3----2----0---------|
G|--------|--------|--------|--------|--------|--------|-0-----2---------|----------------2----|
D|--------|--------|--------|--------|--------|--------|-----------------|---------------------|
A|--------|--------|--------|--------|--------|--------|-----------------|---------------------|
E|--------|--------|--------|--------|--------|--------|-----------------|---------------------|


E|-----------------|---------------------|-----------------|---------------------|
B|-----------------|-3----2----0---------|-----------------|-3----2----0---------|
G|-0-----2---------|----------------2----|-0-----2---------|----------------2----|
D|-----------------|---------------------|-----------------|---------------------|
A|-----------------|---------------------|-----------------|---------------------|
E|-----------------|---------------------|-----------------|---------------------|


E|-----------------------------|-------------|-----------------------------|-------------|
B|-----------------------------|-3-----------|-----------------------------|-3-----------|
G|-0----0----0---2----0----2---|-------------|-0----0----0---2----0----2---|-------------|
D|-----------------------------|-------------|-----------------------------|-------------|
A|-----------------------------|-------------|-----------------------------|-------------|
E|-----------------------------|-------------|-----------------------------|-------------|


E|--------|--------|--------|--------|--------|--------|--------|--------|--------|
B|--------|--------|--------|--------|--------|--------|--------|--------|--------|
G|--------|--------|--------|--------|--------|--------|--------|--------|--------|
D|--------|--------|--------|--------|--------|--------|--------|--------|--------|
A|--------|--------|--------|--------|--------|--------|--------|--------|--------|
E|--------|--------|--------|--------|--------|--------|--------|--------|--------|


E|--------|--------|--------|-----------------|---------------------|-----------------|
B|--------|--------|--------|-----------------|-3----2----0---------|-----------------|
G|--------|--------|--------|-0-----2---------|----------------2----|-0-----2---------|
D|--------|--------|--------|-----------------|---------------------|-----------------|
A|--------|--------|--------|-----------------|---------------------|-----------------|
E|--------|--------|--------|-----------------|---------------------|-----------------|


E|---------------------|-----------------|---------------------|-----------------------------|
B|-3----2----0---------|-----------------|-3----2----0---------|-----------------------------|
G|----------------2----|-0-----2---------|----------------2----|-0----0----0---2----0----2---|
D|---------------------|-----------------|---------------------|-----------------------------|
A|---------------------|-----------------|---------------------|-----------------------------|
E|---------------------|-----------------|---------------------|-----------------------------|


E|-------------|--------|--------|--------|--------|--------|--------|--------|--------|
B|-3-----------|--------|--------|--------|--------|--------|--------|--------|--------|
G|-------------|--------|--------|--------|--------|--------|--------|--------|--------|
D|-------------|--------|--------|--------|--------|--------|--------|--------|--------|
A|-------------|--------|--------|--------|--------|--------|--------|--------|--------|
E|-------------|--------|--------|--------|--------|--------|--------|--------|--------|


E|-----------------|---------------------|-----------------|---------------------|
B|-----------------|-3----2----0---------|-----------------|-3----2----0---------|
G|-0-----2---------|----------------2----|-0-----2---------|----------------2----|
D|-----------------|---------------------|-----------------|---------------------|
A|-----------------|---------------------|-----------------|---------------------|
E|-----------------|---------------------|-----------------|---------------------|


E|-----------------|---------------------|-----------------------------|-------------|
B|-----------------|-3----2----0---------|-----------------------------|-3-----------|
G|-0-----2---------|----------------2----|-0----0----0---2----0----2---|-------------|
D|-----------------|---------------------|-----------------------------|-------------|
A|-----------------|---------------------|-----------------------------|-------------|
E|-----------------|---------------------|-----------------------------|-------------|


E|-----------------------------|-------------|--------|--------|--------|--------|
B|-----------------------------|-3-----------|--------|--------|--------|--------|
G|-0----0----0---2----0----2---|-------------|--------|--------|--------|--------|
D|-----------------------------|-------------|--------|--------|--------|--------|
A|-----------------------------|-------------|--------|--------|--------|--------|
E|-----------------------------|-------------|--------|--------|--------|--------|


E|--------|--------|--------|--------|--------|--------|-----------------|---------------------|
B|--------|--------|--------|--------|--------|--------|-----------------|-3----2----0---------|
G|--------|--------|--------|--------|--------|--------|-0-----2---------|----------------2----|
D|--------|--------|--------|--------|--------|--------|-----------------|---------------------|
A|--------|--------|--------|--------|--------|--------|-----------------|---------------------|
E|--------|--------|--------|--------|--------|--------|-----------------|---------------------|


E|-----------------|---------------------|-----------------|---------------------|
B|-----------------|-3----2----0---------|-----------------|-3----2----0---------|
G|-0-----2---------|----------------2----|-0-----2---------|----------------2----|
D|-----------------|---------------------|-----------------|---------------------|
A|-----------------|---------------------|-----------------|---------------------|
E|-----------------|---------------------|-----------------|---------------------|


E|-----------------------------|-------------|-----------------------------|--------|
B|-----------------------------|-3-----------|-----------------------------|-3------|
G|-0----0----0---2----0----2---|-------------|-0----0----0---2----0----2---|--------|
D|-----------------------------|-------------|-----------------------------|--------|
A|-----------------------------|-------------|-----------------------------|--------|
E|-----------------------------|-------------|-----------------------------|--------|





Track 6: Brass

E|--------|--------|--------|--------|--------|--------|--------|--------|--------|
B|--------|--------|--------|--------|--------|--------|--------|--------|--------|
G|--------|--------|--------|--------|--------|--------|--------|--------|--------|
D|--------|--------|--------|--------|--------|--------|--------|--------|--------|
A|--------|--------|--------|--------|--------|--------|--------|--------|--------|
E|--------|--------|--------|--------|--------|--------|--------|--------|--------|


E|--------|-----3-----3-----3-------5-----5-----5-----|-----5-----5-----5---10--9---7---5---|
B|--------|-------------------------------------------|-------------------------------------|
G|--------|-------------------------------------------|-------------------------------------|
D|--------|-------------------------------------------|-------------------------------------|
A|--------|-------------------------------------------|-------------------------------------|
E|--------|-------------------------------------------|-------------------------------------|


E|-3----3----3---5----3----2---|-2----3----5----------|-----3-----3-----3-------5-----5-----5-----|
B|-----------------------------|----------------------|-------------------------------------------|
G|-----------------------------|----------------------|-------------------------------------------|
D|-----------------------------|----------------------|-------------------------------------------|
A|-----------------------------|----------------------|-------------------------------------------|
E|-----------------------------|----------------------|-------------------------------------------|


E|-----5-----5-----5---10--9---7---5---|-3----3----3---5----3----5---|-10-------------------|
B|-------------------------------------|-----------------------------|----------------------|
G|-------------------------------------|-----------------------------|----------------------|
D|-------------------------------------|-----------------------------|----------------------|
A|-------------------------------------|-----------------------------|----------------------|
E|-------------------------------------|-----------------------------|----------------------|


E|--------|--------|--------|--------|--------|--------|--------|--------|-----3-----3-----3-------5-----5-----5-----|
B|--------|--------|--------|--------|--------|--------|--------|--------|-------------------------------------------|
G|--------|--------|--------|--------|--------|--------|--------|--------|-------------------------------------------|
D|--------|--------|--------|--------|--------|--------|--------|--------|-------------------------------------------|
A|--------|--------|--------|--------|--------|--------|--------|--------|-------------------------------------------|
E|--------|--------|--------|--------|--------|--------|--------|--------|-------------------------------------------|


E|-----5-----5-----5---10--9---7---5---|-3----3----3---5----3----2---|-2----3----5----------|
B|-------------------------------------|-----------------------------|----------------------|
G|-------------------------------------|-----------------------------|----------------------|
D|-------------------------------------|-----------------------------|----------------------|
A|-------------------------------------|-----------------------------|----------------------|
E|-------------------------------------|-----------------------------|----------------------|


E|-----3-----3-----3-------5-----5-----5-----|-----5-----5-----5---10--9---7---5---|
B|-------------------------------------------|-------------------------------------|
G|-------------------------------------------|-------------------------------------|
D|-------------------------------------------|-------------------------------------|
A|-------------------------------------------|-------------------------------------|
E|-------------------------------------------|-------------------------------------|


E|-3----3----3---5----3----5---|-10-------------------|--------|--------|--------|
B|-----------------------------|----------------------|--------|--------|--------|
G|-----------------------------|----------------------|--------|--------|--------|
D|-----------------------------|----------------------|--------|--------|--------|
A|-----------------------------|----------------------|--------|--------|--------|
E|-----------------------------|----------------------|--------|--------|--------|


E|--------|--------|--------|--------|--------|-----3-----3-----3-------5-----5-----5-----|
B|--------|--------|--------|--------|--------|-------------------------------------------|
G|--------|--------|--------|--------|--------|-------------------------------------------|
D|--------|--------|--------|--------|--------|-------------------------------------------|
A|--------|--------|--------|--------|--------|-------------------------------------------|
E|--------|--------|--------|--------|--------|-------------------------------------------|


E|-----5-----5-----5---10--9---7---5---|-3----3----3---5----3----2---|-2----3----5----------|
B|-------------------------------------|-----------------------------|----------------------|
G|-------------------------------------|-----------------------------|----------------------|
D|-------------------------------------|-----------------------------|----------------------|
A|-------------------------------------|-----------------------------|----------------------|
E|-------------------------------------|-----------------------------|----------------------|


E|-----3-----3-----3-------5-----5-----5-----|-----5-----5-----5---10--9---7---5---|
B|-------------------------------------------|-------------------------------------|
G|-------------------------------------------|-------------------------------------|
D|-------------------------------------------|-------------------------------------|
A|-------------------------------------------|-------------------------------------|
E|-------------------------------------------|-------------------------------------|


E|-3----3----3---5----3----5---|-10-------------------|-3----3----3---5----3----5---|
B|-----------------------------|----------------------|-----------------------------|
G|-----------------------------|----------------------|-----------------------------|
D|-----------------------------|----------------------|-----------------------------|
A|-----------------------------|----------------------|-----------------------------|
E|-----------------------------|----------------------|-----------------------------|


E|-10----------|--------|--------|--------|--------|--------|--------|--------|--------|
B|-------------|--------|--------|--------|--------|--------|--------|--------|--------|
G|-------------|--------|--------|--------|--------|--------|--------|--------|--------|
D|-------------|--------|--------|--------|--------|--------|--------|--------|--------|
A|-------------|--------|--------|--------|--------|--------|--------|--------|--------|
E|-------------|--------|--------|--------|--------|--------|--------|--------|--------|


E|--------|--------|--------|--------|-----3-----3-----3-------5-----5-----5-----|
B|--------|--------|--------|--------|-------------------------------------------|
G|--------|--------|--------|--------|-------------------------------------------|
D|--------|--------|--------|--------|-------------------------------------------|
A|--------|--------|--------|--------|-------------------------------------------|
E|--------|--------|--------|--------|-------------------------------------------|


E|-----5-----5-----5---10--9---7---5---|-3----3----3---5----3----2---|-2----3----5----------|
B|-------------------------------------|-----------------------------|----------------------|
G|-------------------------------------|-----------------------------|----------------------|
D|-------------------------------------|-----------------------------|----------------------|
A|-------------------------------------|-----------------------------|----------------------|
E|-------------------------------------|-----------------------------|----------------------|


E|-----3-----3-----3-------5-----5-----5-----|-----5-----5-----5---10--9---7---5---|
B|-------------------------------------------|-------------------------------------|
G|-------------------------------------------|-------------------------------------|
D|-------------------------------------------|-------------------------------------|
A|-------------------------------------------|-------------------------------------|
E|-------------------------------------------|-------------------------------------|


E|-3----3----3---5----3----5---|-10-------------------|--------|--------|--------|
B|-----------------------------|----------------------|--------|--------|--------|
G|-----------------------------|----------------------|--------|--------|--------|
D|-----------------------------|----------------------|--------|--------|--------|
A|-----------------------------|----------------------|--------|--------|--------|
E|-----------------------------|----------------------|--------|--------|--------|


E|--------|--------|--------|--------|--------|-----3-----3-----3-------5-----5-----5-----|
B|--------|--------|--------|--------|--------|-------------------------------------------|
G|--------|--------|--------|--------|--------|-------------------------------------------|
D|--------|--------|--------|--------|--------|-------------------------------------------|
A|--------|--------|--------|--------|--------|-------------------------------------------|
E|--------|--------|--------|--------|--------|-------------------------------------------|


E|-----5-----5-----5---10--9---7---5---|-3----3----3---5----3----2---|-2----3----5----------|
B|-------------------------------------|-----------------------------|----------------------|
G|-------------------------------------|-----------------------------|----------------------|
D|-------------------------------------|-----------------------------|----------------------|
A|-------------------------------------|-----------------------------|----------------------|
E|-------------------------------------|-----------------------------|----------------------|


E|-----3-----3-----3-------5-----5-----5-----|-----5-----5-----5---10--9---7---5---|
B|-------------------------------------------|-------------------------------------|
G|-------------------------------------------|-------------------------------------|
D|-------------------------------------------|-------------------------------------|
A|-------------------------------------------|-------------------------------------|
E|-------------------------------------------|-------------------------------------|


E|-3----3----3---5----3----5---|-10-------------------|-3----3----3---5----3----5---|
B|-----------------------------|----------------------|-----------------------------|
G|-----------------------------|----------------------|-----------------------------|
D|-----------------------------|----------------------|-----------------------------|
A|-----------------------------|----------------------|-----------------------------|
E|-----------------------------|----------------------|-----------------------------|


E|-10----------|--------|--------|--------|--------|--------|--------|--------|--------|
B|-------------|--------|--------|--------|--------|--------|--------|--------|--------|
G|-------------|--------|--------|--------|--------|--------|--------|--------|--------|
D|-------------|--------|--------|--------|--------|--------|--------|--------|--------|
A|-------------|--------|--------|--------|--------|--------|--------|--------|--------|
E|-------------|--------|--------|--------|--------|--------|--------|--------|--------|


E|--------|--------|-----3-----3-----3-------5-----5-----5-----|-----5-----5-----5---10--9---7---5---|
B|--------|--------|-------------------------------------------|-------------------------------------|
G|--------|--------|-------------------------------------------|-------------------------------------|
D|--------|--------|-------------------------------------------|-------------------------------------|
A|--------|--------|-------------------------------------------|-------------------------------------|
E|--------|--------|-------------------------------------------|-------------------------------------|


E|-3----3----3---5----3----2---|-2----3----5----------|-----3-----3-----3-------5-----5-----5-----|
B|-----------------------------|----------------------|-------------------------------------------|
G|-----------------------------|----------------------|-------------------------------------------|
D|-----------------------------|----------------------|-------------------------------------------|
A|-----------------------------|----------------------|-------------------------------------------|
E|-----------------------------|----------------------|-------------------------------------------|


E|-----5-----5-----5---10--9---7---5---|-3----3----3---5----3----5---|-10-------------------|
B|-------------------------------------|-----------------------------|----------------------|
G|-------------------------------------|-----------------------------|----------------------|
D|-------------------------------------|-----------------------------|----------------------|
A|-------------------------------------|-----------------------------|----------------------|
E|-------------------------------------|-----------------------------|----------------------|


E|-3----3----3---5----3----5---|-10-----|
B|-----------------------------|--------|
G|-----------------------------|--------|
D|-----------------------------|--------|
A|-----------------------------|--------|
E|-----------------------------|--------|



Tablature Viewer

Tablature di atas menggunakan tablature viewer yang dapat dimainkan, dapat bersuara layaknya menggunakan aplikasi Tablature seperti TuxGuitar atau Guitar Pro, jika menggunakan smartphone, saran kami gunakan layar landscape atau mode tampilan desktop. Untuk tablature yang berisi banyak instrumen, silahkan pilih instrumen di sebelah kiri.

Tentang Tablature

Tablature atau tabulature, atau tab gitar adalah bentuk notasi musik yang menunjukkan penjarian instrumen daripada nada musik.

Tab gitar di atas khusus hanya bisa dibaca untuk gitar, tidak bisa untuk instrumen musik lainnya. Cara membacanya adalah baris paling atas tablature merupakan senar paling kecil atau paling bawah, sedangkan angka pada garis adalah posisi jari kiri saat senar dipetik.

  e|---0---1---3---
  B|---0---1---0---
  G|---1---2---0---
  D|---2---3---0---
  A|---2---3---2---
  E|---0---1---3---
       E   F   G

Teknik Gitar dalam Tablature

Ada teknik khusus untuk memainkan gitar yang hanya berlaku untuk gitar, ini juga disimbolkan dalam tablature, berikut listnya:

Teknik Simbol Tab
Fret hand muting x
Palm-muting P.M.
Slide up /
Slide down \
Hammer-ons h
Pull-offs p
Trills tr~~~~~~~~
Bends b
Bend and release 5b7r9
Pre-bend and release p
Vibrato ~~~~~~~~~~~~~
Upstrokes ^
Downstrokes V
Natural harmonics <5>
Artificial harmonics A.H.
Tapped Harmonics 0(12)
Pinch Harmonics P.H.
Ghost Notes X atau ( )
Tapping T

Tablature di sini bukan dibuat oleh musisi aslinya, tentu saja kami tidak bisa menjamin keakuratan tablature ini, tapi kami selalu berusaha. Menulis tablature juga bukan pekerjaan mudah, jika tidak terlalu mirip mohon dimaklumi. Untuk suara gitar, kami sengaja tidak memakai sound yang lebih realistis seperti halnya RSE karena faktor ukuran file, semakin besar soundfont akan menyebabkan loading player semakin lama, belum lagi faktor koneksi internet yang bisa menyebabkan tablature viewer tidak bisa dimainkan jika soundfont terlalu besar.

Lihat Juga

Gitagram adalah portal referensi edukasi musik yang menyediakan not angka, not balok, tab gitar dan kunci gitar sebagai sarana belajar. Seperti halnya buku lagu, namun kami bisa diakses secara online via komputer dan smartphone, berbeda dengan buku yang umumnya berbayar, layanan kami gratis untuk siapa saja.
Kami menggunakan teknologi untuk menampilkan not angka secara akurat, not balok yang bisa dimainkan, dan tab gitar yang bisa dilihat secara online dan terformat rapi tanpa perlu instal software seperti Guitar Pro atau TuxGuitar.

Mengapa Harus Kami?

Memang ada banyak website atau aplikasi yang menampilkan chord gitar, dengan database lagu yang berjumlah puluhan ribu, tapi setelah kami cek, ternyata banyak kunci gitar yang tidak akurat, dan antar web saling menyalin satu sama lain. Hal tersebut bisa jadi karena pemilik websitenya hanya mengutamakan kuantitas konten, tanpa memikirkan keakuratan chord gitar, atau bahkan tidak tahu mengenai teori musik.
Perbedaan kami dengan situs chord gitar pada umumnya adalah: orang di balik layar kami adalah seorang musisi, bisa aransemen musik, bisa menulis notasi angka, not balok maupun tablature, maka tentu saja untuk membaca chord gitar saja pastinya lebih mudah daripada menulis partitur.

Webmaster kami juga berusaha menampilkan teknologi musik yang bisa dilihat dan dimainkan di web browser PC maupun mobile, tak perlu instal software khusus musik untuk membaca partitur dan tablature yang ada di sini.
Chord Gitar dengan Diagram Lirik dan kunci gitar dengan diagram chord gitar untuk memudahkan belajar.
Not Angka Terformat Rapi Dengan penulisan khusus standar not angka (bukan cuma angka saja)
Notasi Balok Interaktif Seperti halnya menggunakan software khusus partitur
Tablature Gitar Interaktif Tablature Gitar, Bass dan instrumen musik lainnya yang bisa dimainkan dan dicetak

Konten yang ada di sini hanya sebagai media pembelajaran dan sebagai referensi, kami tidak bisa menjamin 100% akurat meskipun kami sudah berusaha seakurat mungkin. Not Angka, chord gitar dan tab gitar bukan ditulis langsung oleh pencipta lagunya, tapi dari kontributor kami dan dari berbagai sumber. Berdasarkan apa yang kami dengar lalu menuliskannya semampu kami, tentu saja kami tidak bisa 100% akurat terutama saat membuat Tab Gitar, wajar jika ada perbedaan posisi jari antara gitaris asli dan tablature yang ada di sini
Kami tidak menampilkan konten berupa audio, video serta konten berhak cipta lainnya. Jika anda ingin mendengar salah satu lagu yang chord gitar atau tablaturenya ada di sini, silahkan dengarkan via saluran resminya seperti via YouTube, JOOX, Spotify dll.


GitagramKontenFeedback
Tentang KamiRekomendasiHubungi Kami
Privacy PolicyTangga LaguRequest & Support
Syarat dan KetentuanTerbaruSubmit
Copyright: All lyrics are property and copyright of their owners. All lyrics provided for educational purposes and personal use only.
tab-gitar/genit-tipe-x.txt · Terakhir diubah: 2021/09/17 07:21 oleh Arya
Browse: A B C D E FG HI JK LM NOP QR S T U VW XY Z