Madu Tiga - Triad

Artis TRIAD
Penulis Lagu P Ramlee
Pilihan TablatureTab Gitar Versi Pro - ASCII Tablature

Tab Gitar Versi Pro

Music sheet is loading
0%
-
00:00 / 00:00

Jika anda memiliki software/aplikasi Guitar Pro atau TuxGuitar, kamu bisa download file tablature Madu Tiga Triad berformat GP5 di sini.

FYI: Guitar Pro adalah aplikasi berbayar yang tersedia untuk berbagai platform seperti Windows, MacOS, Android dan iOS. Sedangkan TuxGuitar adalah aplikasi gratis yang tersedia untuk platform Windows, Linux dan Android

ASCII Tablature

Tablature versi teks yang umum digunakan pada gitar.

Title: Madu Tiga
Artist: Ahmad Dhani
Album: 
Author: Gitagram


Track 1: Gitar

E|--------|--------|-----3----3-----------3----|-----1----1-----------1----|-----0----0-----------0----|
B|--------|--------|-----3----3---3---3---3----|-----3----3---3---3---3----|-----2----2---2---2---2----|
G|--------|--------|-----3--------3---3---3----|-----2--------2---2---2----|-----2--------2---2---2----|
D|--------|--------|-5------------5------------|-0------------0------------|--------------2------------|
A|--------|--------|---------------------------|---------------------------|-0-------------------------|
E|--------|--------|---------------------------|---------------------------|---------------------------|


E|-----1----1-----------1----|-----3----3-----------3----|-----1----1-----------1----|
B|-----3----3---3---3---3----|-----3----3---3---3---3----|-----3----3---3---3---3----|
G|-----2--------2---2---2----|-----3--------3---3---3----|-----2--------2---2---2----|
D|-0------------0------------|-5------------5------------|-0------------0------------|
A|---------------------------|---------------------------|---------------------------|
E|---------------------------|---------------------------|---------------------------|


E|------------------------------|----------------|--------|-----1----1-----------1----|
B|------------------------------|---------5------|-5------|-----3----3---3---3---3----|
G|-6--------6---6-------6-------|-7-------6------|-6------|-----2--------2---2---2----|
D|-7--------7---7-------7-------|-7-------7------|-7------|-0------------0------------|
A|------------------------------|----------------|--------|---------------------------|
E|------------------------------|----------------|--------|---------------------------|


E|-----0----0-----------0----|-----0----0-----------0----|-----6----3-----------6----|
B|-----2----2---2---2---2----|-----2----2---2---2---2----|-----3----3---3---3---3----|
G|-----2--------2---2---2----|-----2--------2---2---2----|-----3--------3---3---3----|
D|--------------2------------|--------------2------------|-5------------5------------|
A|-0-------------------------|-0-------------------------|---------------------------|
E|---------------------------|---------------------------|---------------------------|


E|-----1----1-----------1----|-----4----4---4-------4----|-5-----5----5----|-----1----1-----------1----|
B|-----3----3---3---3---3----|-----3----3---3---3---3----|-5-----5----5----|-----3----3---3---3---3----|
G|-----2--------2---2---2----|-----4----4---4---4---4----|-6-----6----6----|-----2--------2---2---2----|
D|-0------------0------------|-2------------2------------|-7-----7----7----|-0------------0------------|
A|---------------------------|---------------------------|-----------------|---------------------------|
E|---------------------------|---------------------------|-----------------|---------------------------|


E|-----1----1-----------1----|-----0----0-----------0----|-----0----0-----------0----|
B|-----3----3---3---3---3----|-----2----2---2---2---2----|-----2----2---2---2---2----|
G|-----2--------2---2---2----|-----2--------2---2---2----|-----2--------2---2---2----|
D|-0------------0------------|--------------2------------|--------------2------------|
A|---------------------------|-0-------------------------|-0-------------------------|
E|---------------------------|---------------------------|---------------------------|


E|-----6----3-----------6----|-----1----1-----------1----|-----0----0-----------0----|
B|-----3----3---3---3---3----|-----3----3---3---3---3----|-----2----2---2---2---2----|
G|-----3--------3---3---3----|-----2--------2---2---2----|-----2--------2---2---2----|
D|-5------------5------------|-0------------0------------|--------------2------------|
A|---------------------------|---------------------------|-0-------------------------|
E|---------------------------|---------------------------|---------------------------|


E|--------|-----0----0-----------0----|-----0----0-----------0----|-----1----1-----------1----|
B|--------|-----1----1---1---1---1----|-----1----1---1---1---1----|-----3----3---3---3---3----|
G|--------|-----0--------0---0---0----|-----0--------0---0---0----|-----3--------3---3---3----|
D|--------|--------------2------------|--------------2------------|--------------3------------|
A|--------|-3-------------------------|-3-------------------------|-1-------------------------|
E|--------|---------------------------|---------------------------|---------------------------|


E|-----1----1-----------1----|-----0----0-----------0----|-----0----0-----------0----|
B|-----3----3---3---3---3----|-----2----2---2---2---2----|-----2----2---2---2---2----|
G|-----3--------3---3---3----|-----2--------2---2---2----|-----2--------2---2---2----|
D|--------------3------------|--------------2------------|--------------2------------|
A|-1-------------------------|-0-------------------------|-0-------------------------|
E|---------------------------|---------------------------|---------------------------|


E|-----0----0-----------0----|--------|-----1----1-----------1----|-----1----1-----------1----|
B|-----2----2---2---2---2----|--------|-----3----3---3---3---3----|-----3----3---3---3---3----|
G|-----2--------2---2---2----|--------|-----2--------2---2---2----|-----2--------2---2---2----|
D|--------------2------------|--------|-0------------0------------|-0------------0------------|
A|-0-------------------------|--------|---------------------------|---------------------------|
E|---------------------------|--------|---------------------------|---------------------------|


E|-----0----0-----------0----|-----0----0-----------0----|-----6----3-----------6----|
B|-----2----2---2---2---2----|-----2----2---2---2---2----|-----3----3---3---3---3----|
G|-----2--------2---2---2----|-----2--------2---2---2----|-----3--------3---3---3----|
D|--------------2------------|--------------2------------|-5------------5------------|
A|-0-------------------------|-0-------------------------|---------------------------|
E|---------------------------|---------------------------|---------------------------|


E|-----1----1-----------1----|-----0----0-----------0----|-5------------------|--------|
B|-----3----3---3---3---3----|-----2----2---2---2---2----|-6------------------|--------|
G|-----2--------2---2---2----|-----2--------2---2---2----|-7------------------|--------|
D|-0------------0------------|--------------2------------|--------------------|--------|
A|---------------------------|-0-------------------------|--------------------|--------|
E|---------------------------|---------------------------|--------------------|--------|


E|--------|-----1----1-----------1----|-----1----1-----------1----|-----0----0-----------0----|
B|--------|-----3----3---3---3---3----|-----3----3---3---3---3----|-----2----2---2---2---2----|
G|--------|-----2--------2---2---2----|-----2--------2---2---2----|-----2--------2---2---2----|
D|--------|-0------------0------------|-0------------0------------|--------------2------------|
A|--------|---------------------------|---------------------------|-0-------------------------|
E|--------|---------------------------|---------------------------|---------------------------|


E|-----0----0-----------0----|-----6----3-----------6----|-----1----1-----------1----|
B|-----2----2---2---2---2----|-----3----3---3---3---3----|-----3----3---3---3---3----|
G|-----2--------2---2---2----|-----3--------3---3---3----|-----2--------2---2---2----|
D|--------------2------------|-5------------5------------|-0------------0------------|
A|-0-------------------------|---------------------------|---------------------------|
E|---------------------------|---------------------------|---------------------------|


E|-----4----4---4-------4----|-5-----5----5----|-----1----1-----------1----|-----1----1-----------1----|
B|-----3----3---3---3---3----|-5-----5----5----|-----3----3---3---3---3----|-----3----3---3---3---3----|
G|-----4----4---4---4---4----|-6-----6----6----|-----2--------2---2---2----|-----2--------2---2---2----|
D|-2------------2------------|-7-----7----7----|-0------------0------------|-0------------0------------|
A|---------------------------|-----------------|---------------------------|---------------------------|
E|---------------------------|-----------------|---------------------------|---------------------------|


E|-----0----0-----------0----|-----0----0-----------0----|-----6----3-----------6----|
B|-----2----2---2---2---2----|-----2----2---2---2---2----|-----3----3---3---3---3----|
G|-----2--------2---2---2----|-----2--------2---2---2----|-----3--------3---3---3----|
D|--------------2------------|--------------2------------|-5------------5------------|
A|-0-------------------------|-0-------------------------|---------------------------|
E|---------------------------|---------------------------|---------------------------|


E|-----1----1-----------1----|------------------------------|-1------|-----3----3-----------3----|
B|-----3----3---3---3---3----|------------------------------|-3------|-----3----3---3---3---3----|
G|-----2--------2---2---2----|-6--------6---6-------6-------|-2------|-----3--------3---3---3----|
D|-0------------0------------|-7--------7---7-------7-------|-0------|-5------------5------------|
A|---------------------------|------------------------------|--------|---------------------------|
E|---------------------------|------------------------------|--------|---------------------------|


E|-----1----1-----------1----|-----0----0-----------0----|-----1----1-----------1----|
B|-----3----3---3---3---3----|-----2----2---2---2---2----|-----3----3---3---3---3----|
G|-----2--------2---2---2----|-----2--------2---2---2----|-----2--------2---2---2----|
D|-0------------0------------|--------------2------------|-0------------0------------|
A|---------------------------|-0-------------------------|---------------------------|
E|---------------------------|---------------------------|---------------------------|


E|-----3----3-----------3----|-----1----1-----------1----|------------------------------|
B|-----3----3---3---3---3----|-----3----3---3---3---3----|------------------------------|
G|-----3--------3---3---3----|-----2--------2---2---2----|-6--------6---6-------6-------|
D|-5------------5------------|-0------------0------------|-7--------7---7-------7-------|
A|---------------------------|---------------------------|------------------------------|
E|---------------------------|---------------------------|------------------------------|


E|----------------|--------|-----1----1-----------1----|-----0----0-----------0----|
B|---------5------|-5------|-----3----3---3---3---3----|-----2----2---2---2---2----|
G|-7-------6------|-6------|-----2--------2---2---2----|-----2--------2---2---2----|
D|-7-------7------|-7------|-0------------0------------|--------------2------------|
A|----------------|--------|---------------------------|-0-------------------------|
E|----------------|--------|---------------------------|---------------------------|


E|-----0----0-----------0----|-----6----3-----------6----|-----1----1-----------1----|
B|-----2----2---2---2---2----|-----3----3---3---3---3----|-----3----3---3---3---3----|
G|-----2--------2---2---2----|-----3--------3---3---3----|-----2--------2---2---2----|
D|--------------2------------|-5------------5------------|-0------------0------------|
A|-0-------------------------|---------------------------|---------------------------|
E|---------------------------|---------------------------|---------------------------|


E|-----4----4---4-------4----|-5-----5----5----|-----1----1-----------1----|-----1----1-----------1----|
B|-----3----3---3---3---3----|-5-----5----5----|-----3----3---3---3---3----|-----3----3---3---3---3----|
G|-----4----4---4---4---4----|-6-----6----6----|-----2--------2---2---2----|-----2--------2---2---2----|
D|-2------------2------------|-7-----7----7----|-0------------0------------|-0------------0------------|
A|---------------------------|-----------------|---------------------------|---------------------------|
E|---------------------------|-----------------|---------------------------|---------------------------|


E|-----0----0-----------0----|-----0----0-----------0----|-----6----3-----------6----|
B|-----2----2---2---2---2----|-----2----2---2---2---2----|-----3----3---3---3---3----|
G|-----2--------2---2---2----|-----2--------2---2---2----|-----3--------3---3---3----|
D|--------------2------------|--------------2------------|-5------------5------------|
A|-0-------------------------|-0-------------------------|---------------------------|
E|---------------------------|---------------------------|---------------------------|


E|-----1----1-----------1----|-----0----0-----------0----|--------|-----0----0-----------0----|
B|-----3----3---3---3---3----|-----2----2---2---2---2----|--------|-----1----1---1---1---1----|
G|-----2--------2---2---2----|-----2--------2---2---2----|--------|-----0--------0---0---0----|
D|-0------------0------------|--------------2------------|--------|--------------2------------|
A|---------------------------|-0-------------------------|--------|-3-------------------------|
E|---------------------------|---------------------------|--------|---------------------------|


E|-----0----0-----------0----|-----1----1-----------1----|-----1----1-----------1----|
B|-----1----1---1---1---1----|-----3----3---3---3---3----|-----3----3---3---3---3----|
G|-----0--------0---0---0----|-----3--------3---3---3----|-----3--------3---3---3----|
D|--------------2------------|--------------3------------|--------------3------------|
A|-3-------------------------|-1-------------------------|-1-------------------------|
E|---------------------------|---------------------------|---------------------------|


E|-----0----0-----------0----|-----0----0-----------0----|-----0----0-----------0----|
B|-----2----2---2---2---2----|-----2----2---2---2---2----|-----2----2---2---2---2----|
G|-----2--------2---2---2----|-----2--------2---2---2----|-----2--------2---2---2----|
D|--------------2------------|--------------2------------|--------------2------------|
A|-0-------------------------|-0-------------------------|-0-------------------------|
E|---------------------------|---------------------------|---------------------------|


E|--------|-----1----1-----------1----|-----1----1-----------1----|-----0----0-----------0----|
B|--------|-----3----3---3---3---3----|-----3----3---3---3---3----|-----2----2---2---2---2----|
G|--------|-----2--------2---2---2----|-----2--------2---2---2----|-----2--------2---2---2----|
D|--------|-0------------0------------|-0------------0------------|--------------2------------|
A|--------|---------------------------|---------------------------|-0-------------------------|
E|--------|---------------------------|---------------------------|---------------------------|


E|-----0----0-----------0----|-----6----3-----------6----|-----1----1-----------1----|
B|-----2----2---2---2---2----|-----3----3---3---3---3----|-----3----3---3---3---3----|
G|-----2--------2---2---2----|-----3--------3---3---3----|-----2--------2---2---2----|
D|--------------2------------|-5------------5------------|-0------------0------------|
A|-0-------------------------|---------------------------|---------------------------|
E|---------------------------|---------------------------|---------------------------|


E|-----0----0-----------0----|-5---------5----5----|------------------------|
B|-----2----2---2---2---2----|-6---------6----6----|-----------6------------|
G|-----2--------2---2---2----|-7---------7----7----|-------6---7------------|
D|--------------2------------|---------------------|-------7----------------|
A|-0-------------------------|---------------------|------------------------|
E|---------------------------|---------------------|------------------------|





Track 2: Bass

G|--------|--------|------------------------|------------------------|------------------------|
D|--------|--------|-5------------5---------|-0------------0---------|-7------------7---------|
A|--------|--------|-----5----5--------5----|-----0----0--------0----|-----7----7--------7----|
E|--------|--------|------------------------|------------------------|------------------------|


G|------------------------|------------------------|------------------------------|
D|-0------------0---------|-5------------5---------|-0------------0---3---2---0---|
A|-----0----0--------0----|-----5----5--------5----|-----0----0-------------------|
E|------------------------|------------------------|------------------------------|


G|------------------------------|----------------|--------|------------------------|
D|-7--------5-------------------|----------------|--------|-0------------0---------|
A|--------------8-------7-------|-5--------------|--------|-----0----0--------0----|
E|------------------------------|---------5------|-5------|------------------------|


G|------------------------|------------------------|------------------------|------------------------|
D|-7------------7---------|-7------------7---------|-5------------5---------|-0------------0---------|
A|-----7----7--------7----|-----7----7--------7----|-----5----5--------5----|-----0----0--------0----|
E|------------------------|------------------------|------------------------|------------------------|


G|------------------------|--------------------|------------------------|------------------------|
D|-2------------2---------|-7------------------|-0------------0---------|-0------------0---------|
A|-----2----2--------2----|--------------------|-----0----0--------0----|-----0----0--------0----|
E|------------------------|--------------------|------------------------|------------------------|


G|------------------------|------------------------|------------------------|------------------------|
D|-7------------7---------|-7------------7---------|-5------------5---------|-0------------0---------|
A|-----7----7--------7----|-----7----7--------7----|-----5----5--------5----|-----0----0--------0----|
E|------------------------|------------------------|------------------------|------------------------|


G|------------------------|--------------------|------------------------|------------------------|
D|-7------------7---------|--------------------|------------------------|------------------------|
A|-----7----7--------7----|-5------------------|-3------------3---------|-3------------3---------|
E|------------------------|--------------------|-----3----3--------3----|-----3----3--------3----|


G|------------------------|------------------------|------------------------|------------------------|
D|------------------------|------------------------|-7------------7---------|-7------------7---------|
A|-1------------1---------|-1------------1---------|-----7----7--------7----|-----7----7--------7----|
E|-----1----1--------1----|-----1----1--------1----|------------------------|------------------------|


G|------------------------|---------------------------|------------------------|------------------------|
D|-7------------7---------|-7---------7---5-----------|-0------------0---------|-0------------0---------|
A|-----7----7--------7----|-------------------8---7---|-----0----0--------0----|-----0----0--------0----|
E|------------------------|---------------------------|------------------------|------------------------|


G|------------------------|------------------------|------------------------|------------------------|
D|-7------------7---------|-7------------7---------|-5------------5---------|-0------------0---------|
A|-----7----7--------7----|-----7----7--------7----|-----5----5--------5----|-----0----0--------0----|
E|------------------------|------------------------|------------------------|------------------------|


G|------------------------|---------------------|--------|--------|------------------------|
D|-7------------7---------|---------------------|--------|--------|-0------------0---------|
A|-----7----7--------7----|-5---------5----5----|--------|--------|-----0----0--------0----|
E|------------------------|---------------------|--------|--------|------------------------|


G|------------------------|------------------------|------------------------|------------------------|
D|-0------------0---------|-7------------7---------|-7------------7---------|-5------------5---------|
A|-----0----0--------0----|-----7----7--------7----|-----7----7--------7----|-----5----5--------5----|
E|------------------------|------------------------|------------------------|------------------------|


G|------------------------|------------------------|--------------------------|------------------------|
D|-0------------0---------|-2------------2---------|-7------------7---------7-|-0------------0---------|
A|-----0----0--------0----|-----2----2--------2----|-----7----7--------7------|-----0----0--------0----|
E|------------------------|------------------------|--------------------------|------------------------|


G|------------------------|------------------------|------------------------|------------------------|
D|-0------------0---------|-7------------7---------|-7------------7---------|-5------------5---------|
A|-----0----0--------0----|-----7----7--------7----|-----7----7--------7----|-----5----5--------5----|
E|------------------------|------------------------|------------------------|------------------------|


G|------------------------|------------------------------|------------------------|
D|-0------------0---------|-7--------5-------------------|-0------------0---------|
A|-----0----0--------0----|--------------8-------7-------|-----0----0--------0----|
E|------------------------|------------------------------|------------------------|


G|------------------------|------------------------|------------------------|------------------------|
D|-5------------5---------|-0------------0---------|-7------------7---------|-0------------0---------|
A|-----5----5--------5----|-----0----0--------0----|-----7----7--------7----|-----0----0--------0----|
E|------------------------|------------------------|------------------------|------------------------|


G|------------------------|------------------------------|------------------------------|
D|-5------------5---------|-0------------0---3---2---0---|-7--------5-------------------|
A|-----5----5--------5----|-----0----0-------------------|--------------8-------7-------|
E|------------------------|------------------------------|------------------------------|


G|----------------|--------|------------------------|------------------------|------------------------|
D|----------------|--------|-0------------0---------|-7------------7---------|-7------------7---------|
A|-5--------------|--------|-----0----0--------0----|-----7----7--------7----|-----7----7--------7----|
E|---------5------|-5------|------------------------|------------------------|------------------------|


G|------------------------|------------------------|------------------------|--------------------|
D|-5------------5---------|-0------------0---------|-2------------2---------|-7------------------|
A|-----5----5--------5----|-----0----0--------0----|-----2----2--------2----|--------------------|
E|------------------------|------------------------|------------------------|--------------------|


G|------------------------|------------------------|------------------------|------------------------|
D|-0------------0---------|-0------------0---------|-7------------7---------|-7------------7---------|
A|-----0----0--------0----|-----0----0--------0----|-----7----7--------7----|-----7----7--------7----|
E|------------------------|------------------------|------------------------|------------------------|


G|------------------------|------------------------|------------------------|--------------------|
D|-5------------5---------|-0------------0---------|-7------------7---------|--------------------|
A|-----5----5--------5----|-----0----0--------0----|-----7----7--------7----|-5------------------|
E|------------------------|------------------------|------------------------|--------------------|


G|------------------------|------------------------|------------------------|------------------------|
D|------------------------|------------------------|------------------------|------------------------|
A|-3------------3---------|-3------------3---------|-1------------1---------|-1------------1---------|
E|-----3----3--------3----|-----3----3--------3----|-----1----1--------1----|-----1----1--------1----|


G|------------------------|------------------------|------------------------|---------------------------|
D|-7------------7---------|-7------------7---------|-7------------7---------|-7---------7---5-----------|
A|-----7----7--------7----|-----7----7--------7----|-----7----7--------7----|-------------------8---7---|
E|------------------------|------------------------|------------------------|---------------------------|


G|------------------------|------------------------|------------------------|------------------------|
D|-0------------0---------|-0------------0---------|-7------------7---------|-7------------7---------|
A|-----0----0--------0----|-----0----0--------0----|-----7----7--------7----|-----7----7--------7----|
E|------------------------|------------------------|------------------------|------------------------|


G|------------------------|------------------------|------------------------|---------------------------|
D|-5------------5---------|-0------------0---------|-7------------7---------|---------------------------|
A|-----5----5--------5----|-----0----0--------0----|-----7----7--------7----|-5---------5-------5-------|
E|------------------------|------------------------|------------------------|---------------------------|


G|------------------------|
D|------------------------|
A|-------0---5------------|
E|------------------------|





Track 3: Flute

E|--------|--------|-----------------10--------|-13---10-----|-9---8---9---10--12----|
B|--------|--------|-11--10--11--13-------11---|-------------|-----------------------|
G|--------|--------|---------------------------|-------------|-----------------------|
D|--------|--------|---------------------------|-------------|-----------------------|
A|--------|--------|---------------------------|-------------|-----------------------|
E|--------|--------|---------------------------|-------------|-----------------------|


E|-10--9---10--12--13----|--------|--------|--------|--------|--------|-----------15---15---|
B|-----------------------|--------|--------|--------|--------|--------|------15-------------|
G|-----------------------|--------|--------|--------|--------|--------|---------------------|
D|-----------------------|--------|--------|--------|--------|--------|---------------------|
A|-----------------------|--------|--------|--------|--------|--------|---------------------|
E|-----------------------|--------|--------|--------|--------|--------|---------------------|


E|-15-----|--------------12--13--15--17--|-18----15----|-17----13----|--------|-----------------------|
B|--------|------14--15------------------|-------------|-------------|--------|-10----10------10------|
G|--------|------------------------------|-------------|-------------|--------|-----------------------|
D|--------|------------------------------|-------------|-------------|--------|-----------------------|
A|--------|------------------------------|-------------|-------------|--------|-----------------------|
E|--------|------------------------------|-------------|-------------|--------|-----------------------|


E|--------|--------|--------|--------------12--13--15--17--|-18----15----|-17----13----|
B|-15-----|--------|--------|------14--15------------------|-------------|-------------|
G|--------|--------|--------|------------------------------|-------------|-------------|
D|--------|--------|--------|------------------------------|-------------|-------------|
A|--------|--------|--------|------------------------------|-------------|-------------|
E|--------|--------|--------|------------------------------|-------------|-------------|


E|--------|--------|--------|-------------|--------|-------------|--------|--------|
B|--------|--------|--------|-------------|-3------|-3-----------|--------|--------|
G|-6------|--------|-5------|-5-----------|--------|-------------|--------|--------|
D|--------|--------|--------|-------------|--------|-------------|--------|--------|
A|--------|--------|--------|-------------|--------|-------------|--------|--------|
E|--------|--------|--------|-------------|--------|-------------|--------|--------|


E|--------|-------17--15--13--12--|--------|-----------15---15---|-15-----|--------------12--13--15--17--|
B|--------|-----------------------|-15-----|------15-------------|--------|------14--15------------------|
G|--------|-----------------------|--------|---------------------|--------|------------------------------|
D|--------|-----------------------|--------|---------------------|--------|------------------------------|
A|--------|-----------------------|--------|---------------------|--------|------------------------------|
E|--------|-----------------------|--------|---------------------|--------|------------------------------|


E|-18----15----|-17----13----|-17-----|--------|--------|--------|--------|-----------15---15---|
B|-------------|-------------|--------|--------|--------|--------|-15-----|------15-------------|
G|-------------|-------------|--------|--------|--------|--------|--------|---------------------|
D|-------------|-------------|--------|--------|--------|--------|--------|---------------------|
A|-------------|-------------|--------|--------|--------|--------|--------|---------------------|
E|-------------|-------------|--------|--------|--------|--------|--------|---------------------|


E|-15-----|--------------12--13--15--17--|-------6-----|-------5-----|----------------7---------10---|
B|--------|------14--15------------------|-8-----------|-6-----------|------9----10--------9---------|
G|--------|------------------------------|-------------|-------------|-------------------------------|
D|--------|------------------------------|-------------|-------------|-------------------------------|
A|--------|------------------------------|-------------|-------------|-------------------------------|
E|--------|------------------------------|-------------|-------------|-------------------------------|


E|-9------|--------|--------|--------|--------|-------6-----|-------5-----|--------|
B|--------|-15-----|--------|--------|--------|-8-----------|-6-----------|--------|
G|--------|--------|--------|--------|--------|-------------|-------------|--------|
D|--------|--------|--------|--------|--------|-------------|-------------|--------|
A|--------|--------|--------|--------|--------|-------------|-------------|--------|
E|--------|--------|--------|--------|--------|-------------|-------------|--------|


E|--------|-----------------10--------|-13---10-----|-9---8---9---10--12----|-10--9---10--12--13----|
B|--------|-11--10--11--13-------11---|-------------|-----------------------|-----------------------|
G|--------|---------------------------|-------------|-----------------------|-----------------------|
D|--------|---------------------------|-------------|-----------------------|-----------------------|
A|--------|---------------------------|-------------|-----------------------|-----------------------|
E|--------|---------------------------|-------------|-----------------------|-----------------------|


E|--------|--------|--------|--------|--------|-----------15---15---|-15-----|--------------12--13--15--17--|
B|--------|--------|--------|--------|--------|------15-------------|--------|------14--15------------------|
G|--------|--------|--------|--------|--------|---------------------|--------|------------------------------|
D|--------|--------|--------|--------|--------|---------------------|--------|------------------------------|
A|--------|--------|--------|--------|--------|---------------------|--------|------------------------------|
E|--------|--------|--------|--------|--------|---------------------|--------|------------------------------|


E|-18----15----|-17----13----|--------|-----------------------|--------|-----------15---15---|
B|-------------|-------------|--------|-10----10------10------|-15-----|------15-------------|
G|-------------|-------------|--------|-----------------------|--------|---------------------|
D|-------------|-------------|--------|-----------------------|--------|---------------------|
A|-------------|-------------|--------|-----------------------|--------|---------------------|
E|-------------|-------------|--------|-----------------------|--------|---------------------|


E|-15-----|--------------12--13--15--17--|-18----15----|-17----13----|--------|--------|
B|--------|------14--15------------------|-------------|-------------|--------|--------|
G|--------|------------------------------|-------------|-------------|-6------|--------|
D|--------|------------------------------|-------------|-------------|--------|--------|
A|--------|------------------------------|-------------|-------------|--------|--------|
E|--------|------------------------------|-------------|-------------|--------|--------|


E|--------|-------------|--------|-------------|--------|--------|--------|-------17--15--13--12--|
B|--------|-------------|-3------|-3-----------|--------|--------|--------|-----------------------|
G|-5------|-5-----------|--------|-------------|--------|--------|--------|-----------------------|
D|--------|-------------|--------|-------------|--------|--------|--------|-----------------------|
A|--------|-------------|--------|-------------|--------|--------|--------|-----------------------|
E|--------|-------------|--------|-------------|--------|--------|--------|-----------------------|


E|--------|-----------15---15---|-15-----|--------------12--13--15--17--|-18----15----|
B|-15-----|------15-------------|--------|------14--15------------------|-------------|
G|--------|---------------------|--------|------------------------------|-------------|
D|--------|---------------------|--------|------------------------------|-------------|
A|--------|---------------------|--------|------------------------------|-------------|
E|--------|---------------------|--------|------------------------------|-------------|


E|-17----13----|--------|--------|-----------22-----------|
B|-------------|--------|--------|-------22---------------|
G|-------------|-6------|--------|------------------------|
D|-------------|--------|--------|------------------------|
A|-------------|--------|--------|------------------------|
E|-------------|--------|--------|------------------------|





Track 4: Brass

E|--------|--------|---------------------------|-17---13-----|-------12----|-------17----|
B|--------|--------|-8-------8---10--11--------|-------------|-------------|-15----------|
G|--------|--------|-----7----------------12---|-------------|-14----------|-------------|
D|--------|--------|---------------------------|-------------|-------------|-------------|
A|--------|--------|---------------------------|-------------|-------------|-------------|
E|--------|--------|---------------------------|-------------|-------------|-------------|


E|--------|-----------------------|------------------------------|----------------|
B|--------|-----------------------|-10---------------------------|----------------|
G|--------|-----------10--9-------|----------12--10------9-------|-7--------------|
D|--------|-------------------12--|------------------------------|---------7------|
A|--------|-----------------------|------------------------------|----------------|
E|--------|-----------------------|------------------------------|----------------|


E|--------|-----------15---15---|-15-----|--------------12--13--15--17--|-18----15----|
B|--------|------15-------------|--------|------14--15------------------|-------------|
G|--------|---------------------|--------|------------------------------|-------------|
D|-7------|---------------------|--------|------------------------------|-------------|
A|--------|---------------------|--------|------------------------------|-------------|
E|--------|---------------------|--------|------------------------------|-------------|


E|-17----13----|--------|-------17------17------|-13-----|--------|--------|--------------12--13--15--17--|
B|-------------|--------|-10--------------------|--------|--------|--------|------14--15------------------|
G|-------------|--------|-----------------------|--------|--------|--------|------------------------------|
D|-------------|--------|-----------------------|--------|--------|--------|------------------------------|
A|-------------|--------|-----------------------|--------|--------|--------|------------------------------|
E|-------------|--------|-----------------------|--------|--------|--------|------------------------------|


E|-18----15----|-17----13----|--------|------------------------------|--------|-------------|
B|-------------|-------------|--------|------------------------------|-5------|-5-----------|
G|-------------|-------------|--------|-7------------7-------7-------|--------|-------------|
D|-------------|-------------|-7------|----------7-------------------|--------|-------------|
A|-------------|-------------|--------|------------------------------|--------|-------------|
E|-------------|-------------|--------|------------------------------|--------|-------------|


E|--------|-------------|--------|--------|--------|-------17--15--13--12--|--------|
B|-3------|-3-----------|--------|--------|--------|-----------------------|-15-----|
G|--------|-------------|--------|--------|--------|-----------------------|--------|
D|--------|-------------|--------|--------|--------|-----------------------|--------|
A|--------|-------------|--------|--------|--------|-----------------------|--------|
E|--------|-------------|--------|--------|--------|-----------------------|--------|


E|-----------15---15---|-15-----|--------------12--13--15--17--|-18----15----|-17----13----|
B|------15-------------|--------|------14--15------------------|-------------|-------------|
G|---------------------|--------|------------------------------|-------------|-------------|
D|---------------------|--------|------------------------------|-------------|-------------|
A|---------------------|--------|------------------------------|-------------|-------------|
E|---------------------|--------|------------------------------|-------------|-------------|


E|-17-----|--------|--------|--------|-13-----|-----------15---15---|-15-----|--------------12--13--15--17--|
B|--------|--------|--------|--------|--------|------15-------------|--------|------14--15------------------|
G|--------|--------|--------|--------|--------|---------------------|--------|------------------------------|
D|--------|--------|--------|--------|--------|---------------------|--------|------------------------------|
A|--------|--------|--------|--------|--------|---------------------|--------|------------------------------|
E|--------|--------|--------|--------|--------|---------------------|--------|------------------------------|


E|-------------|-------------|-------------------------------|-----------------|-13-----|
B|-------8-----|-------6-----|-------------------------------|-14---11---10----|--------|
G|-7-----------|-7-----------|-------------------------------|-----------------|--------|
D|-------------|-------------|----------------6---------8----|-11--------------|--------|
A|-------------|-------------|------7----8---------7---------|------13---12----|--------|
E|-------------|-------------|-------------------------------|-----------------|--------|


E|--------|--------|--------|-------------|-------------|--------|--------|---------------------------|
B|--------|--------|--------|-------8-----|-------6-----|--------|--------|-8-------8---10--11--------|
G|--------|--------|--------|-7-----------|-7-----------|--------|--------|-----7----------------12---|
D|--------|--------|--------|-------------|-------------|--------|--------|---------------------------|
A|--------|--------|--------|-------------|-------------|--------|--------|---------------------------|
E|--------|--------|--------|-------------|-------------|--------|--------|---------------------------|


E|-17---13-----|-------12----|-------17----|--------|-----------------------|------------------------------|
B|-------------|-------------|-15----------|--------|-----------------------|-10---------------------------|
G|-------------|-14----------|-------------|--------|-----------10--9-------|----------12--10------9-------|
D|-------------|-------------|-------------|--------|-------------------12--|------------------------------|
A|-------------|-------------|-------------|--------|-----------------------|------------------------------|
E|-------------|-------------|-------------|--------|-----------------------|------------------------------|


E|----------------|--------|-----------15---15---|-15-----|--------------12--13--15--17--|
B|----------------|--------|------15-------------|--------|------14--15------------------|
G|-7--------------|--------|---------------------|--------|------------------------------|
D|---------7------|-7------|---------------------|--------|------------------------------|
A|----------------|--------|---------------------|--------|------------------------------|
E|----------------|--------|---------------------|--------|------------------------------|


E|-18----15----|-17----13----|--------|-------17------17------|-13-----|-----------15---15---|
B|-------------|-------------|--------|-10--------------------|--------|------15-------------|
G|-------------|-------------|--------|-----------------------|--------|---------------------|
D|-------------|-------------|--------|-----------------------|--------|---------------------|
A|-------------|-------------|--------|-----------------------|--------|---------------------|
E|-------------|-------------|--------|-----------------------|--------|---------------------|


E|-15-----|--------------12--13--15--17--|-18----15----|-17----13----|--------|------------------------------|
B|--------|------14--15------------------|-------------|-------------|--------|------------------------------|
G|--------|------------------------------|-------------|-------------|--------|-7------------7-------7-------|
D|--------|------------------------------|-------------|-------------|-7------|----------7-------------------|
A|--------|------------------------------|-------------|-------------|--------|------------------------------|
E|--------|------------------------------|-------------|-------------|--------|------------------------------|


E|--------|-------------|--------|-------------|--------|--------|--------|-------17--15--13--12--|
B|-5------|-5-----------|-3------|-3-----------|--------|--------|--------|-----------------------|
G|--------|-------------|--------|-------------|--------|--------|--------|-----------------------|
D|--------|-------------|--------|-------------|--------|--------|--------|-----------------------|
A|--------|-------------|--------|-------------|--------|--------|--------|-----------------------|
E|--------|-------------|--------|-------------|--------|--------|--------|-----------------------|


E|-13-----|-----------15---15---|-15-----|--------------12--13--15--17--|-18----15----|
B|--------|------15-------------|--------|------14--15------------------|-------------|
G|--------|---------------------|--------|------------------------------|-------------|
D|--------|---------------------|--------|------------------------------|-------------|
A|--------|---------------------|--------|------------------------------|-------------|
E|--------|---------------------|--------|------------------------------|-------------|


E|-17----13----|--------|--------|-----------10-----------|
B|-------------|--------|--------|-------10---------------|
G|-------------|--------|--------|------------------------|
D|-------------|-7------|--------|------------------------|
A|-------------|--------|--------|------------------------|
E|-------------|--------|--------|------------------------|





Track 5: Saxophone

E|--------|--------|--------|----------------|----------------|-------10--------------|
B|--------|--------|--------|----------------|----------------|-----------13--11--10--|
G|--------|--------|--------|------------7---|-6----------9---|-7---------------------|
D|--------|--------|--------|----------------|----------------|-----------------------|
A|--------|--------|--------|----------------|----------------|-----------------------|
E|--------|--------|--------|----------------|----------------|-----------------------|


E|-----------------10--------|-13---10---10----|------------------------------|----------------|
B|-11--10--11--13-------11---|-----------------|-10---------------------------|----------------|
G|---------------------------|-----------------|----------12--10------9-------|-7--------------|
D|---------------------------|-----------------|------------------------------|---------7------|
A|---------------------------|-----------------|------------------------------|----------------|
E|---------------------------|-----------------|------------------------------|----------------|


E|--------|--------|--------|--------|--------|--------|--------|--------|--------|
B|--------|--------|--------|--------|--------|--------|--------|--------|--------|
G|--------|--------|--------|--------|--------|--------|--------|--------|--------|
D|-7------|--------|--------|--------|--------|--------|--------|--------|--------|
A|--------|--------|--------|--------|--------|--------|--------|--------|--------|
E|--------|--------|--------|--------|--------|--------|--------|--------|--------|


E|---------------------|--------|--------|--------|--------|--------|------------------------------|
B|---------------------|--------|--------|--------|--------|--------|------------------------------|
G|---------------------|--------|--------|--------|--------|--------|------------------------------|
D|-----------7----5----|-7------|--------|--------|--------|--------|-3------------3-------3-------|
A|------5--------------|--------|--------|--------|--------|--------|----------5-------------------|
E|---------------------|--------|--------|--------|--------|--------|------------------------------|


E|--------|--------------------------|--------|-------------------|--------|--------|
B|-13-----|-13----15--13--1113-1110--|-11-----|-11-----1011-108---|-10-----|-10-----|
G|--------|--------------------------|--------|-------------------|--------|--------|
D|--------|--------------------------|--------|-------------------|--------|--------|
A|--------|--------------------------|--------|-------------------|--------|--------|
E|--------|--------------------------|--------|-------------------|--------|--------|


E|---------------------------------|--------------------|--------|--------|--------|
B|-----10--8---10--13--11--10--8---|-10-----------------|--------|--------|--------|
G|---------------------------------|--------------------|--------|--------|--------|
D|---------------------------------|--------------------|--------|--------|--------|
A|---------------------------------|--------------------|--------|--------|--------|
E|---------------------------------|--------------------|--------|--------|--------|


E|--------|--------|--------|--------|--------|--------|--------|-13--13--13--12--13---15---|
B|--------|--------|--------|--------|--------|--------|--------|---------------------------|
G|--------|--------|--------|--------|--------|--------|--------|---------------------------|
D|--------|--------|--------|--------|--------|--------|--------|---------------------------|
A|--------|--------|--------|--------|--------|--------|--------|---------------------------|
E|--------|--------|--------|--------|--------|--------|--------|---------------------------|


E|-17----22--------|-15--17--15--13--12---13---|-15---------15--17--|-18---18---15----|
B|-----------------|---------------------------|--------------------|-----------------|
G|-----------------|---------------------------|--------------------|-----------------|
D|-----------------|---------------------------|--------------------|-----------------|
A|-----------------|---------------------------|--------------------|-----------------|
E|-----------------|---------------------------|--------------------|-----------------|


E|-17---17---13----|--------|--------|-13--13--13--12--13---15---|-17----22--------|
B|-----------------|--------|-5------|---------------------------|-----------------|
G|-----------------|--------|-6------|---------------------------|-----------------|
D|-----------------|--------|-7------|---------------------------|-----------------|
A|-----------------|--------|--------|---------------------------|-----------------|
E|-----------------|--------|--------|---------------------------|-----------------|


E|-15--17--15--13--12---13---|-15---------15--17--|-18---18---15----|-17---17---13----|
B|---------------------------|--------------------|-----------------|-----------------|
G|---------------------------|--------------------|-----------------|-----------------|
D|---------------------------|--------------------|-----------------|-----------------|
A|---------------------------|--------------------|-----------------|-----------------|
E|---------------------------|--------------------|-----------------|-----------------|


E|--------|--------|--------|----------------|----------------|-------10--------------|
B|--------|--------|--------|----------------|----------------|-----------13--11--10--|
G|--------|--------|--------|------------7---|-6----------9---|-7---------------------|
D|--------|--------|--------|----------------|----------------|-----------------------|
A|--------|--------|--------|----------------|----------------|-----------------------|
E|--------|--------|--------|----------------|----------------|-----------------------|


E|-----------------10--------|-13---10---10----|------------------------------|----------------|
B|-11--10--11--13-------11---|-----------------|-10---------------------------|----------------|
G|---------------------------|-----------------|----------12--10------9-------|-7--------------|
D|---------------------------|-----------------|------------------------------|---------7------|
A|---------------------------|-----------------|------------------------------|----------------|
E|---------------------------|-----------------|------------------------------|----------------|


E|--------|--------|--------|--------|--------|--------|--------|--------|--------|
B|--------|--------|--------|--------|--------|--------|--------|--------|--------|
G|--------|--------|--------|--------|--------|--------|--------|--------|--------|
D|-7------|--------|--------|--------|--------|--------|--------|--------|--------|
A|--------|--------|--------|--------|--------|--------|--------|--------|--------|
E|--------|--------|--------|--------|--------|--------|--------|--------|--------|


E|--------|--------|--------|--------|--------|--------|------------------------------|
B|--------|--------|--------|--------|--------|--------|------------------------------|
G|--------|--------|--------|--------|--------|--------|------------------------------|
D|--------|--------|--------|--------|--------|--------|-3------------3-------3-------|
A|--------|--------|--------|--------|--------|--------|----------5-------------------|
E|--------|--------|--------|--------|--------|--------|------------------------------|


E|--------|--------------------------|--------|-------------------|--------|--------|
B|-13-----|-13----15--13--1113-1110--|-11-----|-11-----1011-108---|-10-----|-10-----|
G|--------|--------------------------|--------|-------------------|--------|--------|
D|--------|--------------------------|--------|-------------------|--------|--------|
A|--------|--------------------------|--------|-------------------|--------|--------|
E|--------|--------------------------|--------|-------------------|--------|--------|


E|---------------------------------|--------------------|--------|--------|--------|
B|-----10--8---10--13--11--10--8---|-10-----------------|--------|--------|--------|
G|---------------------------------|--------------------|--------|--------|--------|
D|---------------------------------|--------------------|--------|--------|--------|
A|---------------------------------|--------------------|--------|--------|--------|
E|---------------------------------|--------------------|--------|--------|--------|


E|--------|--------|--------|--------|--------|--------|
B|--------|--------|--------|--------|--------|--------|
G|--------|--------|--------|--------|--------|--------|
D|--------|--------|--------|--------|--------|--------|
A|--------|--------|--------|--------|--------|--------|
E|--------|--------|--------|--------|--------|--------|





Track 6: Tuba

E|--------|--------|------------------------------|------------------------------|
B|--------|--------|------------------------------|------------------------------|
G|--------|--------|------------------------------|------------------------------|
D|--------|--------|------------------------------|------------------------------|
A|--------|--------|------------------------------|----------0---5-------5-------|
E|--------|--------|-3------------3-------3-------|------------------------------|
B|--------|--------|----------3-------------------|-3----------------------------|


E|------------------------------|------------------------------|------------------------------|
B|------------------------------|------------------------------|------------------------------|
G|------------------------------|------------------------------|------------------------------|
D|------------------------------|------------------------------|------------------------------|
A|--------------0-------0-------|----------0---5-------5-------|------------------------------|
E|-5--------0-------------------|------------------------------|-3------------3-------3-------|
B|------------------------------|-3----------------------------|----------3-------------------|


E|------------------------------|------------------------------|----------------|--------|
B|------------------------------|------------------------------|----------------|--------|
G|------------------------------|------------------------------|----------------|--------|
D|------------------------------|------------------------------|----------------|--------|
A|----------0---5---------------|------------------------------|----------------|--------|
E|------------------------------|-5--------3---1-------0-------|---------5------|-5------|
B|-3----------------6---5---3---|------------------------------|-3--------------|--------|


E|--------|--------|--------|--------|--------|--------|---------------------------|
B|--------|--------|--------|--------|--------|--------|---------------------------|
G|--------|--------|--------|--------|--------|--------|---------------------------|
D|--------|--------|--------|--------|--------|--------|---------------------------|
A|--------|--------|--------|--------|--------|--------|-12--------12------12------|
E|--------|--------|--------|--------|--------|--------|---------------------------|
B|--------|--------|--------|--------|--------|--------|---------------------------|


E|--------|--------|--------|--------|--------|--------|--------|------------------------------|
B|--------|--------|--------|--------|--------|--------|--------|------------------------------|
G|--------|--------|--------|--------|--------|--------|--------|-7------------7-------7-------|
D|--------|--------|--------|--------|--------|--------|--------|----------7-------------------|
A|--------|--------|--------|--------|--------|--------|--------|------------------------------|
E|--------|--------|--------|--------|--------|--------|--------|------------------------------|
B|--------|--------|--------|--------|--------|--------|--------|------------------------------|


E|--------|--------|--------|--------|--------|--------|--------|--------|--------|
B|--------|--------|--------|--------|--------|--------|--------|--------|--------|
G|--------|--------|--------|--------|--------|--------|--------|--------|--------|
D|--------|--------|--------|--------|--------|--------|--------|--------|--------|
A|--------|--------|--------|--------|--------|--------|--------|--------|--------|
E|--------|--------|--------|--------|--------|--------|--------|--------|--------|
B|--------|--------|--------|--------|--------|--------|--------|--------|--------|


E|--------|--------|--------|--------|--------|--------|--------|-------------|--------|
B|--------|--------|--------|--------|--------|--------|--------|-------------|--------|
G|--------|--------|--------|--------|--------|--------|--------|-------------|--------|
D|--------|--------|--------|--------|--------|--------|--------|------7------|-7------|
A|--------|--------|--------|--------|--------|--------|--------|-------------|--------|
E|--------|--------|--------|--------|--------|--------|--------|------5------|-5------|
B|--------|--------|--------|--------|--------|--------|--------|-------------|--------|


E|--------|--------|--------|--------|--------|--------|--------|--------|--------|
B|--------|--------|--------|--------|--------|--------|--------|--------|--------|
G|--------|--------|--------|--------|--------|--------|--------|--------|--------|
D|--------|--------|--------|--------|--------|--------|--------|--------|--------|
A|--------|--------|--------|--------|--------|--------|--------|--------|--------|
E|--------|--------|--------|--------|--------|--------|--------|--------|--------|
B|--------|--------|--------|--------|--------|--------|--------|--------|--------|


E|---------------------|--------|--------|--------|-----------------------|------------------------------|
B|---------------------|--------|--------|--------|-----------------------|------------------------------|
G|---------------------|--------|--------|--------|-----------------------|------------------------------|
D|------7----5----3----|-2------|-2------|--------|-----------------------|------------------------------|
A|---------------------|--------|--------|--------|-----------8---7---5---|------------------------------|
E|---------------------|--------|--------|--------|-----------------------|-5--------3---1-------0-------|
B|---------------------|--------|--------|--------|-----------6---5---3---|------------------------------|


E|------------------------------|------------------------------|------------------------------|
B|------------------------------|------------------------------|------------------------------|
G|------------------------------|------------------------------|------------------------------|
D|------------------------------|------------------------------|------------------------------|
A|----------0---5-------5-------|------------------------------|----------0---5-------5-------|
E|------------------------------|-3------------3-------3-------|------------------------------|
B|-3----------------------------|----------3-------------------|-3----------------------------|


E|------------------------------|------------------------------|------------------------------|
B|------------------------------|------------------------------|------------------------------|
G|------------------------------|------------------------------|------------------------------|
D|------------------------------|------------------------------|------------------------------|
A|--------------0-------0-------|----------0---5-------5-------|------------------------------|
E|-5--------0-------------------|------------------------------|-3------------3-------3-------|
B|------------------------------|-3----------------------------|----------3-------------------|


E|------------------------------|------------------------------|----------------|--------|
B|------------------------------|------------------------------|----------------|--------|
G|------------------------------|------------------------------|----------------|--------|
D|------------------------------|------------------------------|----------------|--------|
A|----------0---5---------------|------------------------------|----------------|--------|
E|------------------------------|-5--------3---1-------0-------|---------5------|-5------|
B|-3----------------6---5---3---|------------------------------|-3--------------|--------|


E|--------|--------|--------|--------|--------|--------|---------------------------|
B|--------|--------|--------|--------|--------|--------|---------------------------|
G|--------|--------|--------|--------|--------|--------|---------------------------|
D|--------|--------|--------|--------|--------|--------|---------------------------|
A|--------|--------|--------|--------|--------|--------|-12--------12------12------|
E|--------|--------|--------|--------|--------|--------|---------------------------|
B|--------|--------|--------|--------|--------|--------|---------------------------|


E|--------|--------|--------|--------|--------|--------|--------|------------------------------|
B|--------|--------|--------|--------|--------|--------|--------|------------------------------|
G|--------|--------|--------|--------|--------|--------|--------|-7------------7-------7-------|
D|--------|--------|--------|--------|--------|--------|--------|----------7-------------------|
A|--------|--------|--------|--------|--------|--------|--------|------------------------------|
E|--------|--------|--------|--------|--------|--------|--------|------------------------------|
B|--------|--------|--------|--------|--------|--------|--------|------------------------------|


E|--------|--------|--------|--------|--------|--------|--------|--------|--------|
B|--------|--------|--------|--------|--------|--------|--------|--------|--------|
G|--------|--------|--------|--------|--------|--------|--------|--------|--------|
D|--------|--------|--------|--------|--------|--------|--------|--------|--------|
A|--------|--------|--------|--------|--------|--------|--------|--------|--------|
E|--------|--------|--------|--------|--------|--------|--------|--------|--------|
B|--------|--------|--------|--------|--------|--------|--------|--------|--------|


E|--------|--------|--------|--------|--------|--------|--------|--------|
B|--------|--------|--------|--------|--------|--------|--------|--------|
G|--------|--------|--------|--------|--------|--------|--------|--------|
D|--------|--------|--------|--------|--------|--------|--------|--------|
A|--------|--------|--------|--------|--------|--------|--------|--------|
E|--------|--------|--------|--------|--------|--------|--------|--------|
B|--------|--------|--------|--------|--------|--------|--------|--------|





Track 7: Drums

C|---------------------------|------------------------|------------------------------|
C|-74---73--73--74---73--73--|-74---73--73--73--------|------------------------------|
C|---------------------------|------------------------|-----------------42---73--73--|
C|---------------------------|------------------------|-36--40--42------74---40------|
C|---------------------------|------------------------|-74----------40--36---42------|
C|---------------------------|------------------------|-42------73--73---------------|


C|------------------------------|------------------------------|------------------------------|
C|------------------------------|------------------------------|------------------------------|
C|-----------------42---73--73--|-----------------42---73--73--|-----------------42---73--73--|
C|-36--40--42------74---40------|-36--40--42------74---40------|-36--40--42------74---40------|
C|-74----------40--36---42------|-74----------40--36---42------|-74----------40--36---42------|
C|-42------73--73---------------|-42------73--73---------------|-42------73--73---------------|


C|------------------------------|------------------------------|------------------------------|
C|------------------------------|------------------------------|------------------------------|
C|-----------------42---73--73--|-----------------42---73--73--|-----------------42---73--73--|
C|-36--40--42------74---40------|-36--40--42------74---40------|-36--40--42------74---40------|
C|-74----------40--36---42------|-74----------40--36---42------|-74----------40--36---42------|
C|-42------73--73---------------|-42------73--73---------------|-42------73--73---------------|


C|-------------|-------------|------------------------------|------------------------------|
C|-------------|-------------|------------------------------|------------------------------|
C|-------------|--------40---|-----------------42---73--73--|-----------------42---73--73--|
C|-40----------|-------------|-36--40--42------74---40------|-36--40--42------74---40------|
C|-42---36-----|-------------|-74----------40--36---42------|-74----------40--36---42------|
C|------49-----|-------------|-42------73--73---------------|-42------73--73---------------|


C|------------------------------|------------------------------|------------------------------|
C|------------------------------|------------------------------|------------------------------|
C|-----------------42---73--73--|-----------------42---73--73--|-----------------42---73--73--|
C|-36--40--42------74---40------|-36--40--42------74---40------|-36--40--42------74---40------|
C|-74----------40--36---42------|-74----------40--36---42------|-74----------40--36---42------|
C|-42------73--73---------------|-42------73--73---------------|-42------73--73---------------|


C|------------------------------|------------------------------|------------------------------|
C|------------------------------|------------------------------|------------------------------|
C|-----------------42---73--73--|-----------------42---73--73--|-----------------42---73--73--|
C|-36--40--42------74---40------|-36--40--42------74---40------|-36--40--42------74---40------|
C|-74----------40--36---42------|-74----------40--36---42------|-74----------40--36---42------|
C|-42------73--73---------------|-42------73--73---------------|-42------73--73---------------|


C|------------------------------|------------------------------|------------------------------|
C|------------------------------|------------------------------|------------------------------|
C|-----------------42---73--73--|-----------------42---73--73--|-----------------42---73--73--|
C|-36--40--42------74---40------|-36--40--42------74---40------|-36--40--42------74---40------|
C|-74----------40--36---42------|-74----------40--36---42------|-74----------40--36---42------|
C|-42------73--73---------------|-42------73--73---------------|-42------73--73---------------|


C|------------------------------|------------------------------|------------------------------|
C|------------------------------|------------------------------|------------------------------|
C|-----------------42---73--73--|-----------------42---73--73--|-----------------42---73--73--|
C|-36--40--42------74---40------|-36--40--42------74---40------|-36--40--42------74---40------|
C|-74----------40--36---42------|-74----------40--36---42------|-74----------40--36---42------|
C|-42------73--73---------------|-42------73--73---------------|-42------73--73---------------|


C|---------------------------|------------------------------|------------------------------|
C|-74---73--73--74---73--73--|------------------------------|------------------------------|
C|-42------------------------|-----------------42---73--73--|-----------------42---73--73--|
C|-36------------------------|-36--40--42------74---40------|-36--40--42------74---40------|
C|-43------------------------|-74----------40--36---42------|-74----------40--36---42------|
C|---------------------------|-42------73--73---------------|-42------73--73---------------|


C|------------------------------|------------------------------|------------------------------|
C|------------------------------|------------------------------|------------------------------|
C|-----------------42---73--73--|-----------------42---73--73--|-----------------42---73--73--|
C|-36--40--42------74---40------|-36--40--42------74---40------|-36--40--42------74---40------|
C|-74----------40--36---42------|-74----------40--36---42------|-74----------40--36---42------|
C|-42------73--73---------------|-42------73--73---------------|-42------73--73---------------|


C|------------------------------|------------------------------|--------------------|
C|------------------------------|------------------------------|--------------------|
C|-----------------42---73--73--|-----------------42---73--73--|--------------------|
C|-36--40--42------74---40------|-36--40--42------74---40------|-36-----------------|
C|-74----------40--36---42------|-74----------40--36---42------|-42-----------------|
C|-42------73--73---------------|-42------73--73---------------|--------------------|


C|------------------------------|------------------------------|------------------------------|
C|------------------------------|------------------------------|------------------------------|
C|-----------------42---73--73--|-----------------42---73--73--|-----------------42---73--73--|
C|-36--40--42------74---40------|-36--40--42------74---40------|-36--40--42------74---40------|
C|-74----------40--36---42------|-74----------40--36---42------|-74----------40--36---42------|
C|-42------73--73---------------|-42------73--73---------------|-42------73--73---------------|


C|------------------------------|------------------------------|------------------------------|
C|------------------------------|------------------------------|------------------------------|
C|-----------------42---73--73--|-----------------42---73--73--|-----------------42---73--73--|
C|-36--40--42------74---40------|-36--40--42------74---40------|-36--40--42------74---40------|
C|-74----------40--36---42------|-74----------40--36---42------|-74----------40--36---42------|
C|-42------73--73---------------|-42------73--73---------------|-42------73--73---------------|


C|------------------------------|-----------------|-39--39--39--39--39--39--39--39--|
C|------------------------------|-----------------|---------------------------------|
C|-----------------42---73--73--|-------43---40---|---------------------------------|
C|-36--40--42------74---40------|-40--------------|---------------------------------|
C|-74----------40--36---42------|-43----40---43---|---------------------------------|
C|-42------73--73---------------|-----------------|---------------------------------|


C|-39--39--39--39--39--39--39--39--|------------------------------|------------------------------|
C|---------------------------------|------------------------------|------------------------------|
C|---------------------------------|-----------------42---73--73--|-----------------42---73--73--|
C|---------------------------------|-36--40--42------74---40------|-36--40--42------74---40------|
C|---------------------------------|-74----------40--36---42------|-74----------40--36---42------|
C|---------------------------------|-42------73--73---------------|-42------73--73---------------|


C|------------------------------|------------------------------|------------------------------|
C|------------------------------|------------------------------|------------------------------|
C|-----------------42---73--73--|-----------------42---73--73--|-----------------42---73--73--|
C|-36--40--42------74---40------|-36--40--42------74---40------|-36--40--42------74---40------|
C|-74----------40--36---42------|-74----------40--36---42------|-74----------40--36---42------|
C|-42------73--73---------------|-42------73--73---------------|-42------73--73---------------|


C|------------------------------|------------------------------|------------------------------|
C|------------------------------|------------------------------|------------------------------|
C|-----------------42---73--73--|-----------------42---73--73--|-----------------42---73--73--|
C|-36--40--42------74---40------|-36--40--42------74---40------|-36--40--42------74---40------|
C|-74----------40--36---42------|-74----------40--36---42------|-74----------40--36---42------|
C|-42------73--73---------------|-42------73--73---------------|-42------73--73---------------|


C|------------------------------|------------------------------|------------------------------|
C|------------------------------|------------------------------|------------------------------|
C|-----------------42---73--73--|-----------------42---73--73--|-----------------42---73--73--|
C|-36--40--42------74---40------|-36--40--42------74---40------|-36--40--42------74---40------|
C|-74----------40--36---42------|-74----------40--36---42------|-74----------40--36---42------|
C|-42------73--73---------------|-42------73--73---------------|-42------73--73---------------|


C|------------------------------|------------------------------|------------------------------|
C|------------------------------|------------------------------|------------------------------|
C|-----------------42---73--73--|-----------------42---73--73--|-----------------42---73--73--|
C|-36--40--42------74---40------|-36--40--42------74---40------|-36--40--42------74---40------|
C|-74----------40--36---42------|-74----------40--36---42------|-74----------40--36---42------|
C|-42------73--73---------------|-42------73--73---------------|-42------73--73---------------|


C|------------------------------|------------------------------|------------------------------|
C|------------------------------|------------------------------|------------------------------|
C|-----------------42---73--73--|-----------------42---73--73--|-----------------42---73--73--|
C|-36--40--42------74---40------|-36--40--42------74---40------|-36--40--42------74---40------|
C|-74----------40--36---42------|-74----------40--36---42------|-74----------40--36---42------|
C|-42------73--73---------------|-42------73--73---------------|-42------73--73---------------|


C|------------------------------|------------------------------|------------------------------|
C|------------------------------|------------------------------|------------------------------|
C|-----------------42---73--73--|-----------------42---73--73--|-----------------42---73--73--|
C|-36--40--42------74---40------|-36--40--42------74---40------|-36--40--42------74---40------|
C|-74----------40--36---42------|-74----------40--36---42------|-74----------40--36---42------|
C|-42------73--73---------------|-42------73--73---------------|-42------73--73---------------|


C|------------------------------|------------------------------|------------------------------|
C|------------------------------|------------------------------|------------------------------|
C|-----------------42---73--73--|-----------------42---73--73--|-----------------42---73--73--|
C|-36--40--42------74---40------|-36--40--42------74---40------|-36--40--42------74---40------|
C|-74----------40--36---42------|-74----------40--36---42------|-74----------40--36---42------|
C|-42------73--73---------------|-42------73--73---------------|-42------73--73---------------|


C|-------------|----------------------|------------------------------|------------------------------|
C|-------------|----------------------|------------------------------|------------------------------|
C|-------------|-----------36-36-40---|-----------------42---73--73--|-----------------42---73--73--|
C|-40----------|----------------------|-36--40--42------74---40------|-36--40--42------74---40------|
C|-42---36-----|----------------------|-74----------40--36---42------|-74----------40--36---42------|
C|------49-----|----------------------|-42------73--73---------------|-42------73--73---------------|


C|------------------------------|------------------------------|------------------------------|
C|------------------------------|------------------------------|------------------------------|
C|-----------------42---73--73--|-----------------42---73--73--|-----------------42---73--73--|
C|-36--40--42------74---40------|-36--40--42------74---40------|-36--40--42------74---40------|
C|-74----------40--36---42------|-74----------40--36---42------|-74----------40--36---42------|
C|-42------73--73---------------|-42------73--73---------------|-42------73--73---------------|


C|------------------------------|------------------------------|------------------------------|
C|------------------------------|------------------------------|------------------------------|
C|-----------------42---73--73--|-----------------42---73--73--|-----------------42---73--73--|
C|-36--40--42------74---40------|-36--40--42------74---40------|-36--40--42------74---40------|
C|-74----------40--36---42------|-74----------40--36---42------|-74----------40--36---42------|
C|-42------73--73---------------|-42------73--73---------------|-42------73--73---------------|


C|------------------------------|------------------------------|------------------------------|
C|------------------------------|------------------------------|------------------------------|
C|-----------------42---73--73--|-----------------42---73--73--|-----------------42---73--73--|
C|-36--40--42------74---40------|-36--40--42------74---40------|-36--40--42------74---40------|
C|-74----------40--36---42------|-74----------40--36---42------|-74----------40--36---42------|
C|-42------73--73---------------|-42------73--73---------------|-42------73--73---------------|


C|------------------------------|------------------------------|------------------------------|
C|------------------------------|------------------------------|------------------------------|
C|-----------------42---73--73--|-----------------42---73--73--|-----------------42---73--73--|
C|-36--40--42------74---40------|-36--40--42------74---40------|-36--40--42------74---40------|
C|-74----------40--36---42------|-74----------40--36---42------|-74----------40--36---42------|
C|-42------73--73---------------|-42------73--73---------------|-42------73--73---------------|


C|---------------------------|------------------------------|------------------------------|
C|-74---73--73--74---73--73--|------------------------------|------------------------------|
C|-42------------------------|-----------------42---73--73--|-----------------42---73--73--|
C|-36------------------------|-36--40--42------74---40------|-36--40--42------74---40------|
C|-43------------------------|-74----------40--36---42------|-74----------40--36---42------|
C|---------------------------|-42------73--73---------------|-42------73--73---------------|


C|------------------------------|------------------------------|------------------------------|
C|------------------------------|------------------------------|------------------------------|
C|-----------------42---73--73--|-----------------42---73--73--|-----------------42---73--73--|
C|-36--40--42------74---40------|-36--40--42------74---40------|-36--40--42------74---40------|
C|-74----------40--36---42------|-74----------40--36---42------|-74----------40--36---42------|
C|-42------73--73---------------|-42------73--73---------------|-42------73--73---------------|


C|------------------------------|------------------------------|--------------------|
C|------------------------------|------------------------------|--------------------|
C|-----------------42---73--73--|-----------------42---73--73--|--------------------|
C|-36--40--42------74---40------|-36--40--42------74---40------|-36-----------------|
C|-74----------40--36---42------|-74----------40--36---42------|-42-----------------|
C|-42------73--73---------------|-42------73--73---------------|--------------------|


C|------------------------------|------------------------------|------------------------------|
C|------------------------------|------------------------------|------------------------------|
C|-----------------42---73--73--|-----------------42---73--73--|-----------------42---73--73--|
C|-36--40--42------74---40------|-36--40--42------74---40------|-36--40--42------74---40------|
C|-74----------40--36---42------|-74----------40--36---42------|-74----------40--36---42------|
C|-42------73--73---------------|-42------73--73---------------|-42------73--73---------------|


C|------------------------------|------------------------------|------------------------------|
C|------------------------------|------------------------------|------------------------------|
C|-----------------42---73--73--|-----------------42---73--73--|-----------------42---73--73--|
C|-36--40--42------74---40------|-36--40--42------74---40------|-36--40--42------74---40------|
C|-74----------40--36---42------|-74----------40--36---42------|-74----------40--36---42------|
C|-42------73--73---------------|-42------73--73---------------|-42------73--73---------------|


C|------------------------------|---------------------------------|------------------------------|
C|------------------------------|---------------------------------|------------------------------|
C|-----------------42---73--73--|-36--------------40------40------|-40--48--47--36--40-----------|
C|-36--40--42------74---40------|-39--39--39--39--36--39--36------|-74------73--73---------------|
C|-74----------40--36---42------|-------------36--------------39--|-----------------42-----------|
C|-42------73--73---------------|-74------73--73--74------73--73--|------------------------------|





Track 8: Synth

E|--------|--------|--------|--------|--------|--------|--------|--------|------------------------------|
B|--------|--------|--------|--------|--------|--------|--------|--------|-10-------11--10------8-------|
G|--------|--------|--------|--------|--------|--------|--------|--------|----------12--10------9-------|
D|--------|--------|--------|--------|--------|--------|--------|--------|------------------------------|
A|--------|--------|--------|--------|--------|--------|--------|--------|------------------------------|
E|--------|--------|--------|--------|--------|--------|--------|--------|------------------------------|


E|----------------|--------|--------|--------|--------|--------|--------|--------|
B|-6-------10-----|-10-----|--------|--------|--------|--------|--------|-9------|
G|-7--------------|--------|--------|--------|--------|--------|--------|-9------|
D|---------7------|-7------|--------|--------|--------|--------|--------|-9------|
A|----------------|--------|--------|--------|--------|--------|--------|--------|
E|----------------|--------|--------|--------|--------|--------|--------|--------|


E|---------------------------|--------|--------|--------|--------|--------|--------|
B|-14--------14------14------|--------|--------|--------|--------|--------|--------|
G|-14--------14------14------|--------|--------|--------|--------|--------|--------|
D|---------------------------|--------|--------|--------|--------|--------|--------|
A|---------------------------|--------|--------|--------|--------|--------|--------|
E|---------------------------|--------|--------|--------|--------|--------|--------|


E|--------|--------|--------|--------------------------|--------|-------------------|
B|--------|--------|-13-----|-13----15--13--1113-1110--|-11-----|-11-----1011-108---|
G|--------|--------|--------|--------------------------|--------|-------------------|
D|--------|--------|--------|--------------------------|--------|-------------------|
A|--------|--------|--------|--------------------------|--------|-------------------|
E|--------|--------|--------|--------------------------|--------|-------------------|


E|--------|--------|---------------------------------|---------------------------|
B|-10-----|-10-----|-----10--8---10--13--11--10--8---|-10------10------10--------|
G|--------|--------|---------------------------------|---------------------------|
D|--------|--------|---------------------------------|---------------------------|
A|--------|--------|---------------------------------|---------------------------|
E|--------|--------|---------------------------------|---------------------------|


E|--------|--------|--------|--------|--------|--------|--------|--------|--------|
B|--------|--------|--------|--------|--------|--------|--------|--------|--------|
G|--------|--------|--------|--------|--------|--------|--------|--------|--------|
D|--------|--------|--------|--------|--------|--------|--------|--------|--------|
A|--------|--------|--------|--------|--------|--------|--------|--------|--------|
E|--------|--------|--------|--------|--------|--------|--------|--------|--------|


E|--------|--------|--------|--------|--------|--------10---|--------10---|-------------------------------|
B|--------|--------|--------|--------|--------|-------------|-------------|----------------9---------11---|
G|--------|--------|--------|--------|--------|--------7----|--------7----|------9----10---4----9----7----|
D|--------|--------|--------|--------|--------|-------------|-------------|------6----7----6----6----8----|
A|--------|--------|--------|--------|--------|-------------|-------------|------7----8---------7---------|
E|--------|--------|--------|--------|--------|-------------|-------------|-------------------------------|


E|--------|--------|--------|--------|--------|--------10---|--------|--------|--------|
B|-10-----|--------|--------|--------|--------|-------------|--------|--------|--------|
G|-6------|--------|--------|--------|--------|--------7----|--------|--------|--------|
D|-7------|--------|--------|--------|--------|-------------|--------|--------|--------|
A|--------|--------|--------|--------|--------|-------------|--------|--------|--------|
E|--------|--------|--------|--------|--------|-------------|--------|--------|--------|


E|--------|--------|--------|--------|--------|--------|------------------------------|
B|--------|--------|--------|--------|--------|--------|-10-------11--10------8-------|
G|--------|--------|--------|--------|--------|--------|----------12--10------9-------|
D|--------|--------|--------|--------|--------|--------|------------------------------|
A|--------|--------|--------|--------|--------|--------|------------------------------|
E|--------|--------|--------|--------|--------|--------|------------------------------|


E|----------------|--------|--------|-----------------------|-------------|--------|
B|-6-------10-----|-10-----|--------|-----------6---5-------|------5------|--------|
G|-7--------------|--------|--------|-------------------7---|-6----6------|--------|
D|---------7------|-7------|--------|-----------------------|-------------|--------|
A|----------------|--------|--------|-----------------------|------4------|--------|
E|----------------|--------|--------|-----------------------|-------------|--------|


E|--------|--------|---------------------------|--------|--------|--------|--------|
B|--------|-9------|-14--------14------14------|--------|--------|--------|--------|
G|--------|-9------|-14--------14------14------|--------|--------|--------|--------|
D|--------|-9------|---------------------------|--------|--------|--------|--------|
A|--------|--------|---------------------------|--------|--------|--------|--------|
E|--------|--------|---------------------------|--------|--------|--------|--------|


E|--------|--------|--------|--------|--------|--------------------------|--------|
B|--------|--------|--------|--------|-13-----|-13----15--13--1113-1110--|-11-----|
G|--------|--------|--------|--------|--------|--------------------------|--------|
D|--------|--------|--------|--------|--------|--------------------------|--------|
A|--------|--------|--------|--------|--------|--------------------------|--------|
E|--------|--------|--------|--------|--------|--------------------------|--------|


E|-------------------|--------|--------|---------------------------------|---------------------------|
B|-11-----1011-108---|-10-----|-10-----|-----10--8---10--13--11--10--8---|-10------10------10--------|
G|-------------------|--------|--------|---------------------------------|---------------------------|
D|-------------------|--------|--------|---------------------------------|---------------------------|
A|-------------------|--------|--------|---------------------------------|---------------------------|
E|-------------------|--------|--------|---------------------------------|---------------------------|


E|--------|--------|--------|--------|--------10---|--------10---|--------|---------------------|
B|--------|--------|--------|--------|-------------|-------------|--------|---------------------|
G|--------|--------|--------|--------|--------7----|--------7----|--------|-7---------7----7----|
D|--------|--------|--------|--------|-------------|-------------|--------|---------------------|
A|--------|--------|--------|--------|-------------|-------------|--------|---------------------|
E|--------|--------|--------|--------|-------------|-------------|--------|---------------------|


E|------------------------|
B|------------------------|
G|-----------7------------|
D|-------7----------------|
A|------------------------|
E|------------------------|




Tablature Viewer

Tablature di atas menggunakan tablature viewer yang dapat dimainkan, dapat bersuara layaknya menggunakan aplikasi Tablature seperti TuxGuitar atau Guitar Pro, jika menggunakan smartphone, saran kami gunakan layar landscape atau mode tampilan desktop. Untuk tablature yang berisi banyak instrumen, silahkan pilih instrumen di sebelah kiri.

Tentang Tablature

Tablature atau tabulature, atau tab gitar adalah bentuk notasi musik yang menunjukkan penjarian instrumen daripada nada musik.

Tab gitar di atas khusus hanya bisa dibaca untuk gitar, tidak bisa untuk instrumen musik lainnya. Cara membacanya adalah baris paling atas tablature merupakan senar paling kecil atau paling bawah, sedangkan angka pada garis adalah posisi jari kiri saat senar dipetik.

  e|---0---1---3---
  B|---0---1---0---
  G|---1---2---0---
  D|---2---3---0---
  A|---2---3---2---
  E|---0---1---3---
       E   F   G

Teknik Gitar dalam Tablature

Ada teknik khusus untuk memainkan gitar yang hanya berlaku untuk gitar, ini juga disimbolkan dalam tablature, berikut listnya:

Teknik Simbol Tab
Fret hand muting x
Palm-muting P.M.
Slide up /
Slide down \
Hammer-ons h
Pull-offs p
Trills tr~~~~~~~~
Bends b
Bend and release 5b7r9
Pre-bend and release p
Vibrato ~~~~~~~~~~~~~
Upstrokes ^
Downstrokes V
Natural harmonics <5>
Artificial harmonics A.H.
Tapped Harmonics 0(12)
Pinch Harmonics P.H.
Ghost Notes X atau ( )
Tapping T

Tablature di sini bukan dibuat oleh musisi aslinya, tentu saja kami tidak bisa menjamin keakuratan tablature ini, tapi kami selalu berusaha. Menulis tablature juga bukan pekerjaan mudah, jika tidak terlalu mirip mohon dimaklumi. Untuk suara gitar, kami sengaja tidak memakai sound yang lebih realistis seperti halnya RSE karena faktor ukuran file, semakin besar soundfont akan menyebabkan loading player semakin lama, belum lagi faktor koneksi internet yang bisa menyebabkan tablature viewer tidak bisa dimainkan jika soundfont terlalu besar.


Gitagram adalah portal referensi edukasi musik yang menyediakan not angka, not balok, tab gitar dan kunci gitar sebagai sarana belajar. Seperti halnya buku lagu, namun kami bisa diakses secara online via komputer dan smartphone, berbeda dengan buku yang umumnya berbayar, layanan kami gratis untuk siapa saja.
Kami menggunakan teknologi untuk menampilkan not angka secara akurat, not balok yang bisa dimainkan, dan tab gitar yang bisa dilihat secara online dan terformat rapi tanpa perlu instal software seperti Guitar Pro atau TuxGuitar.

Mengapa Harus Kami?

Memang ada banyak website atau aplikasi yang menampilkan chord gitar, dengan database lagu yang berjumlah puluhan ribu, tapi setelah kami cek, ternyata banyak kunci gitar yang tidak akurat, dan antar web saling menyalin satu sama lain. Hal tersebut bisa jadi karena pemilik websitenya hanya mengutamakan kuantitas konten, tanpa memikirkan keakuratan chord gitar, atau bahkan tidak tahu mengenai teori musik.
Perbedaan kami dengan situs chord gitar pada umumnya adalah: orang di balik layar kami adalah seorang musisi, bisa aransemen musik, bisa menulis notasi angka, not balok maupun tablature, maka tentu saja untuk membaca chord gitar saja pastinya lebih mudah daripada menulis partitur.

Webmaster kami juga berusaha menampilkan teknologi musik yang bisa dilihat dan dimainkan di web browser PC maupun mobile, tak perlu instal software khusus musik untuk membaca partitur dan tablature yang ada di sini.
Chord Gitar dengan Diagram Lirik dan kunci gitar dengan diagram chord gitar untuk memudahkan belajar.
Not Angka Terformat Rapi Dengan penulisan khusus standar not angka (bukan cuma angka saja)
Notasi Balok Interaktif Seperti halnya menggunakan software khusus partitur
Tablature Gitar Interaktif Tablature Gitar, Bass dan instrumen musik lainnya yang bisa dimainkan dan dicetak

Konten yang ada di sini hanya sebagai media pembelajaran dan sebagai referensi, kami tidak bisa menjamin 100% akurat meskipun kami sudah berusaha seakurat mungkin. Not Angka, chord gitar dan tab gitar bukan ditulis langsung oleh pencipta lagunya, tapi dari kontributor kami dan dari berbagai sumber. Berdasarkan apa yang kami dengar lalu menuliskannya semampu kami, tentu saja kami tidak bisa 100% akurat terutama saat membuat Tab Gitar, wajar jika ada perbedaan posisi jari antara gitaris asli dan tablature yang ada di sini
Kami tidak menampilkan konten berupa audio, video serta konten berhak cipta lainnya. Jika anda ingin mendengar salah satu lagu yang chord gitar atau tablaturenya ada di sini, silahkan dengarkan via saluran resminya seperti via YouTube, JOOX, Spotify dll.


GitagramKontenFeedback
Tentang KamiRekomendasiHubungi Kami
Privacy PolicyTangga LaguRequest
Syarat dan KetentuanTerbaruSubmit
Copyright: All lyrics are property and copyright of their owners. All lyrics provided for educational purposes and personal use only.
tab-gitar/madu-tiga-triad.txt · Terakhir diubah: 2021/09/09 16:58 oleh Arya
Browse:A B C D E FG HI JK LM NOP QR S T U VW XY Z