Super Funk - Funky Kopral

Artis Funky Kopral
Penulis Lagu Funky Kopral
Pilihan TablatureTab Gitar Versi Pro - ASCII Tablature

Tab Gitar Versi Pro

Gitagram Tab Player loading
0%
-
00:00 / 00:00

Jika anda memiliki software/aplikasi Guitar Pro atau TuxGuitar, kamu bisa download file tablature Super Funk Funky Kopral berformat GP5 di sini.

FYI: Guitar Pro adalah aplikasi berbayar yang tersedia untuk berbagai platform seperti Windows, MacOS, Android dan iOS. Sedangkan TuxGuitar adalah aplikasi gratis yang tersedia untuk platform Windows, Linux dan Android

ASCII Tablature

Tablature versi teks yang umum digunakan pada gitar.

Title: Super Funk
Artist: Funky Kopral
Album: 
Author: 


Track 1: Gitar 1

E|-------------------------------------------------|-------------------------------------------------|
B|-------------------------------------------------|-------------------------------------------------|
G|-------------7-----------------------9--7-----7--|-7--7--------------------------------------------|
D|-9--9--9--9--------------------------------9-----|-------9-----------------------------------------|
A|-------------------------------------------------|-------------------------------------------------|
E|-------------------------------------------------|-------------------------------------------------|


E|-------------------------------------------------|-------------------------------------------------|
B|-------------------------------------------------|-------------------------------------------------|
G|-------------------------------------------------|-------------------------------------------------|
D|-------------7-----------------------7--6-----6--|-6--6--------------------------------------------|
A|-9--9--9--9--------------------------------9-----|-------7-----------------------------------------|
E|-------------------------------------------------|-------------------------------------------------|


E|-------------------------------------------------|-------------------------------------------------|
B|-------------------------------------------------|-------------------------------------------------|
G|-------------7-----------------------9--7-----7--|-7--7--------------------------------9--7-----7--|
D|-9--9--9--9--------------------------------9-----|-------9-----------------------------------9-----|
A|-------------------------------------------------|-------------------------------------------------|
E|-------------------------------------------------|-------------------------------------------------|


E|-------------------------------------------------|-------------------------------------------------|
B|-------------------------------------------------|-------------------------------------------------|
G|-7--7--------------------------------------------|-------------------------------------------------|
D|-------9-----9--7-----7--7--7--------------------|-------------------------------------7-----7--9--|
A|-------------------9-----------9-----7--5-----5--|-5--5--------------------5-----7--9--------------|
E|-------------------------------------------7-----|-------7-----------5--7--------------------------|


E|-------------------------------------------------|-------------------------------------------------|
B|-------------------------------------------------|-------------------------------------------------|
G|-7--7--7-----------------------------9--7-----7--|-7--7--------------------------------------------|
D|----------9--------------------------------9-----|-------9-----------------6--6--------7--7--------|
A|-------------------------------------------------|-------------------------------------------------|
E|-------------------------------------------------|-------------------------------------------------|


E|-------------------------------------------------|-------7--7--7--7--7--7--|-------------------------------------------------|
B|-------------------------------------------------|-------7--7--7--7--7--7--|-------------------------0--0--------0-----------|
G|-------------------------------------------------|-------------------------|-------------------------0--0--7-----0--9-----9--|
D|-------------------------------------------------|-------------------------|-------------------------0--0--------0-----------|
A|-------5--5--------------7--7--------9--9--------|-------------------------|-------------------------------------------------|
E|-------------------------------------------------|-------------------------|-------------------------------------------------|


E|-------------------------------------------------|-------------------------------------------------|
B|-------------------------0--0--------0-----------|-------------------------0--0--------0-----------|
G|-------------------------0--0--7-----0--9-----9--|-------------------------0--0--7-----0--9-----9--|
D|-------------------------0--0--------0-----------|-------------------------0--0--------0-----------|
A|-------------------------------------------------|-------------------------------------------------|
E|-------------------------------------------------|-------------------------------------------------|


E|-------------------------------------------------|-------------------------------------------------|
B|-------------------------0--0--------0-----------|-------------------------0--0--------0-----------|
G|-------------------------0--0--7-----0--9-----9--|-------------------------0--0--7-----0--9-----9--|
D|-------------------------0--0--------0-----------|-------------------------0--0--------0-----------|
A|-------------------------------------------------|-------------------------------------------------|
E|-------------------------------------------------|-------------------------------------------------|


E|-------------------------------------------------|-------------------------------------------------|
B|-------------------------0--0--------0-----------|-------------------------0--0--------0-----------|
G|-------------------------0--0--7-----0--9-----9--|-------------------------0--0--7-----0--9-----9--|
D|-------------------------0--0--------0-----------|-------------------------0--0--------0-----------|
A|-------------------------------------------------|-------------------------------------------------|
E|-------------------------------------------------|-------------------------------------------------|


E|-------------------------------------------------|-------------------------------------------------|
B|-------------------------0--0--------0-----------|-------------------------0--0--------0-----------|
G|-------------------------0--0--7-----0--9-----9--|-------------------------0--0--7-----0--9-----9--|
D|-------------------------0--0--------0-----------|-------------------------0--0--------0-----------|
A|-------------------------------------------------|-------------------------------------------------|
E|-------------------------------------------------|-------------------------------------------------|


E|-------------------------------------------------|-------------------------------------------------|
B|-------------------------0--0--------0-----------|-------------------------0--0--------0-----------|
G|-------------------------0--0--7-----0--9-----9--|-------------------------0--0--7-----0--9-----9--|
D|-------------------------0--0--------0-----------|-------------------------0--0--------0-----------|
A|-------------------------------------------------|-------------------------------------------------|
E|-------------------------------------------------|-------------------------------------------------|


E|-------------------------------------------------|-------------------------------------------------|
B|-------------------------0--0--------0-----------|-------------------------0--0--------0-----------|
G|-------------------------0--0--7-----0--9-----9--|-------------------------0--0--7-----0--9-----9--|
D|-------------------------0--0--------0-----------|-------------------------0--0--------0-----------|
A|-------------------------------------------------|-------------------------------------------------|
E|-------------------------------------------------|-------------------------------------------------|


E|-------------------------------------------------|-------------------------------------------------|
B|-------------------------0--0--------0-----------|-------------------------0--0--------0-----------|
G|-------------------------0--0--7-----0--9-----9--|-------------------------0--0--7-----0--9-----9--|
D|-------------------------0--0--------0-----------|-------------------------0--0--------0-----------|
A|-------------------------------------------------|-------------------------------------------------|
E|-------------------------------------------------|-------------------------------------------------|


E|-------------------------------------------------|-------------------------------------------------|
B|-------------------------0--0--------0-----------|-------------------------0--0--------0-----------|
G|-------------------------0--0--7-----0--9-----9--|-------------------------0--0--7-----0--9-----9--|
D|-------------------------0--0--------0-----------|-------------------------0--0--------0-----------|
A|-------------------------------------------------|-------------------------------------------------|
E|-------------------------------------------------|-------------------------------------------------|


E|-------------------------------------------------|-------------------------------------------------|
B|-------------------------0--0--------0-----------|-------------------------0--0--------0-----------|
G|-------------------------0--0--7-----0--9-----9--|-------------------------0--0--7-----0--9-----9--|
D|-------------------------0--0--------0-----------|-------------------------0--0--------0-----------|
A|-------------------------------------------------|-------------------------------------------------|
E|-------------------------------------------------|-------------------------------------------------|


E|-------------------------------------------------|-------------------------------------------------|
B|-------------------------0--0--------0-----------|-------------------------0--0--------0-----------|
G|-------------------------0--0--7-----0--9-----9--|-------------------------0--0--7-----0--9-----9--|
D|-------------------------0--0--------0-----------|-------------------------0--0--------0-----------|
A|-------------------------------------------------|-------------------------------------------------|
E|-------------------------------------------------|-------------------------------------------------|


E|-------------------------------------------------|-------------------------------------------------|
B|-------------------------0--0--------0-----------|-------------------------0--0--------0-----------|
G|-------------------------0--0--7-----0--9-----9--|-------------------------0--0--7-----0--9-----9--|
D|-------------------------0--0--------0-----------|-------------------------0--0--------0-----------|
A|-------------------------------------------------|-------------------------------------------------|
E|-------------------------------------------------|-------------------------------------------------|


E|-------------------------------------------------|-------------------------------------------------|
B|-------------------------0--0--------0-----------|-------------------------0--0--------0-----------|
G|-------------------------0--0--7-----0--9-----9--|-------------------------0--0--7-----0--9-----9--|
D|-------------------------0--0--------0-----------|-------------------------0--0--------0-----------|
A|-------------------------------------------------|-------------------------------------------------|
E|-------------------------------------------------|-------------------------------------------------|


E|-------------------------------------------------|-------------------------------------------------|
B|-------------------------0--0--------0-----------|-------------------------0--0--------0-----------|
G|-------------------------0--0--7-----0--9-----9--|-------------------------0--0--7-----0--9-----9--|
D|-------------------------0--0--------0-----------|-------------------------0--0--------0-----------|
A|-------------------------------------------------|-------------------------------------------------|
E|-------------------------------------------------|-------------------------------------------------|


E|-------------------------------------------------|-------------------------------------------------|
B|-------------------------0--0--------0-----------|-------------------------0--0--------0-----------|
G|-------------------------0--0--7-----0--9-----9--|-------------------------0--0--7-----0--9-----9--|
D|-------------------------0--0--------0-----------|-------------------------0--0--------0-----------|
A|-------------------------------------------------|-------------------------------------------------|
E|-------------------------------------------------|-------------------------------------------------|


E|-------------------------------------------------|-------------------------------------------------|
B|-------------------------0--0--------0-----------|-------------------------0--0--------0-----------|
G|-------------------------0--0--7-----0--9-----9--|-------------------------0--0--7-----0--9-----9--|
D|-------------------------0--0--------0-----------|-------------------------0--0--------0-----------|
A|-------------------------------------------------|-------------------------------------------------|
E|-------------------------------------------------|-------------------------------------------------|


E|--------|-------------------------------------------------|-------------------------------------------------|
B|--------|-------------------------------------------------|-------------------------------------------------|
G|--------|-------------7-----------------------9--7-----7--|-7--7--------------------------------9--7-----7--|
D|--------|-9--9--9--9--------------------------------9-----|-------9-----------------------------------9-----|
A|--------|-------------------------------------------------|-------------------------------------------------|
E|--------|-------------------------------------------------|-------------------------------------------------|


E|-------------------------------------------------|-------------------------------------------------|
B|-------------------------------------------------|-------------------------------------------------|
G|-7--7--------------------------------------------|-------------------------------------------------|
D|-------9-----9--7-----7--7--7--------------------|-------------------------------------------------|
A|-------------------9-----------9-----7--5-----5--|-5--5--------------------------5-----------6--6--|
E|-------------------------------------------7-----|-------7-----------7-----------------------------|


E|--------|-------------------------------------------------|--------|-------------------------------------------10-10-|
B|--------|-------0--0--7--9--7-----0--0--------------------|--------|-------0--0--7--9--7-----0--0--------------10-10-|
G|--------|-------0--0-----------9--0--0--7--0--0--0--8-----|--------|-------0--0-----------9--0--0--7--0--0--0--------|
D|--------|-------0--0--------------------------------------|--------|-------0--0--------------------------------------|
A|--------|-------------------------------------------------|--------|-------------------------------------------------|
E|--------|-------------------------------------------------|--------|-------------------------------------------------|


E|--------|-------------------------------------------------|--------|-------------------------------------------------|
B|--------|-------0--0--7--9--7-----0--0--------------------|--------|-------------------------------------------------|
G|--------|-------0--0-----------9--0--0--7--0--0--0--8-----|--------|-------------------------------------------------|
D|--------|-------0--0--------------------------------------|--------|-4--4--------------------4--4--4-----------------|
A|--------|-------------------------------------------------|--------|-4--4--------------------4--4--4-----------------|
E|--------|-------------------------------------------------|--------|-2--2--------------------2--2--2-----------------|


E|-------------------------------------------------|-------------------------------------------------|
B|-------------------------------------------------|-------------------------------------------------|
G|-------------------------------------------------|-------------------------------------------------|
D|-------------------------------------------------|-7--9--7--7--7--7--------------------------------|
A|-------5--7--------------5-----5--5--------------|-------------------------5-----5--5--------------|
E|-5--7--------------5--7--------------7--7--7-----|-------------------5--7--------------7--7--7-----|


E|-------------------------------------------------|-------------------------------------------------|
B|-------------------------------------------------|-------------------------------------------------|
G|-------------------------------------------------|-------------------------------------------------|
D|-------------------------------------------------|-------------------------7--9--7--7--------------|
A|-------5--7--------------5-----5--5--------------|-5--5--------7--7--------------------7--5--5--5--|
E|-5--7--------------5--7--------------7--7--7-----|-------------------------------------------------|


E|-------------------------------------------------|-------------------------------------------------|
B|-------------------------------------------------|-------------------------------------------------|
G|-------------------------------------------------|-------------------------------------------------|
D|-------------------------------------------------|-7--9--7--7--7--7--------------------------------|
A|-------5--7--------------5-----5--5--------------|-------------------------5-----5--5--------------|
E|-5--7--------------5--7--------------7--7--7-----|-------------------5--7--------------7--7--7-----|


E|-------------------------------------------------|-------------------------------------------------|
B|-------------------------------------------------|-------------------------------------------------|
G|-------------------------------------------------|-------------------------------------------------|
D|-------------------------------------------------|-4--4--------------------4--4--4-----------------|
A|-------5--7--------------5-----5--5--------------|-4--4--------------------4--4--4-----------------|
E|-5--7--------------5--7--------------7--7--7-----|-2--2--------------------2--2--2-----------------|


E|-------------------------------------------------|-------------------------------------------------|
B|-------------------------0--0--------0-----------|-------------------------0--0--------0-----------|
G|-------------------------0--0--7-----0--9-----9--|-------------------------0--0--7-----0--9-----9--|
D|-------------------------0--0--------0-----------|-------------------------0--0--------0-----------|
A|-------------------------------------------------|-------------------------------------------------|
E|-------------------------------------------------|-------------------------------------------------|


E|-------------------------------------------------|-------------------------------------------------|
B|-------------------------0--0--------0-----------|-------------------------0--0--------0-----------|
G|-------------------------0--0--7-----0--9-----9--|-------------------------0--0--7-----0--9-----9--|
D|-------------------------0--0--------0-----------|-------------------------0--0--------0-----------|
A|-------------------------------------------------|-------------------------------------------------|
E|-------------------------------------------------|-------------------------------------------------|


E|-------------------------------------------------|-------------------------------------------------|
B|-------------------------0--0--------0-----------|-------------------------0--0--------0-----------|
G|-------------------------0--0--7-----0--9-----9--|-------------------------0--0--7-----0--9-----9--|
D|-------------------------0--0--------0-----------|-------------------------0--0--------0-----------|
A|-------------------------------------------------|-------------------------------------------------|
E|-------------------------------------------------|-------------------------------------------------|


E|-------------------------------------------------|-------------------------------------------------|
B|-------------------------0--0--------0-----------|-------------------------0--0--------0-----------|
G|-------------------------0--0--7-----0--9-----9--|-------------------------0--0--7-----0--9-----9--|
D|-------------------------0--0--------0-----------|-------------------------0--0--------0-----------|
A|-------------------------------------------------|-------------------------------------------------|
E|-------------------------------------------------|-------------------------------------------------|


E|-------------------------------------------------|-------------------------------------------------|
B|-------------------------0--0--------0-----------|-------------------------0--0--------0-----------|
G|-------------------------0--0--7-----0--9-----9--|-------------------------0--0--7-----0--9-----9--|
D|-------------------------0--0--------0-----------|-------------------------0--0--------0-----------|
A|-------------------------------------------------|-------------------------------------------------|
E|-------------------------------------------------|-------------------------------------------------|


E|-------------------------------------------------|-------------------------------------------------|
B|-------------------------0--0--------0-----------|-------------------------0--0--------0-----------|
G|-------------------------0--0--7-----0--9-----9--|-------------------------0--0--7-----0--9-----9--|
D|-------------------------0--0--------0-----------|-------------------------0--0--------0-----------|
A|-------------------------------------------------|-------------------------------------------------|
E|-------------------------------------------------|-------------------------------------------------|


E|-------------------------------------------------|-------------------------------------------------|
B|-------------------------0--0--------0-----------|-------------------------0--0--------0-----------|
G|-------------------------0--0--7-----0--9-----9--|-------------------------0--0--7-----0--9-----9--|
D|-------------------------0--0--------0-----------|-------------------------0--0--------0-----------|
A|-------------------------------------------------|-------------------------------------------------|
E|-------------------------------------------------|-------------------------------------------------|


E|-------------------------------------------------|-------------------------------------------------|
B|-------------------------0--0--------0-----------|-------------------------------------------------|
G|-------------------------0--0--7-----0--9-----9--|-------------------------------------------------|
D|-------------------------0--0--------0-----------|-------------------------------------------------|
A|-------------------------------------------------|-4--4--------------------------5-----------6--6--|
E|-------------------------------------------------|-------7-----------7-----------------------------|


E|--------|-------------------------------------------------|--------|-------------------------------------------10-10-|
B|--------|-------0--0--7--9--7-----0--0--------------------|--------|-------0--0--7--9--7-----0--0--------------10-10-|
G|--------|-------0--0-----------9--0--0--7--0--0--0--8-----|--------|-------0--0-----------9--0--0--7--0--0--0--------|
D|--------|-------0--0--------------------------------------|--------|-------0--0--------------------------------------|
A|--------|-------------------------------------------------|--------|-------------------------------------------------|
E|--------|-------------------------------------------------|--------|-------------------------------------------------|


E|--------|-------------------------------------------------|--------|-------------------------------------------------|
B|--------|-------0--0--7--9--7-----0--0--------------------|--------|-------------------------------------------------|
G|--------|-------0--0-----------9--0--0--7--0--0--0--8-----|--------|-------------------------------------------------|
D|--------|-------0--0--------------------------------------|--------|-4--4--------------------4--4--4-----------------|
A|--------|-------------------------------------------------|--------|-4--4--------------------4--4--4-----------------|
E|--------|-------------------------------------------------|--------|-2--2--------------------2--2--2-----------------|


E|--------|--------|--------|--------|-------------------------------------------------|
B|--------|--------|--------|--------|-------------------------------------------------|
G|--------|--------|--------|--------|-9--9--9--9--9--9--9--9--9--9--9--9--9--9--9--9--|
D|--------|--------|--------|--------|-------------------------------------------------|
A|--------|--------|--------|--------|-------------------------------------------------|
E|--------|--------|--------|--------|-------------------------------------------------|


E|-------------------------------------------------|--------|-------------------------------------------------|
B|-------------------------------------------------|--------|-------------------------------------------------|
G|-9--9--9--9--9--9--7--9--9--9--9--7--9--9--9--7--|--------|-------------------------------------------------|
D|-------------------------------------------------|-9------|-------------------------------------------------|
A|-------------------------------------------------|--------|-------------------------------------------------|
E|-------------------------------------------------|--------|-------------------------------------------------|


E|-------------------------------------------------|-------------------------------------------------|
B|-------------------------------------------------|-7--5--------------------7--5--------------------|
G|-7--4--4--4-----4--7--4--4--4-----4--7--4--4--4--|-------4--4--7--4--4--4--------4--4--7--4--4--4--|
D|-------------------------------------------------|-------------------------------------------------|
A|-------------------------------------------------|-------------------------------------------------|
E|-------------------------------------------------|-------------------------------------------------|


E|-------------------------------------------------|-------------------------------------------------|
B|-------------------------------------------------|-------------------------------------------------|
G|-------------------------------------------------|-------------------------------------------------|
D|-------------------------------------------------|-------------------------------------------------|
A|-------------------------------------------------|-------------------------------------------------|
E|-------------------------------------------------|-------------------------------------------------|


E|-10-10-10-10-10-10-10-10-10-10-10-10-10-10-10-10-|-12-12-12-12-12-12-12-12-12-14-12-12-10-12-10-10-|
B|-12-12-12-12-12-12-12-12-12-12-12-12-12-12-12-12-|-12-12-12-12-12-12-12-12-------------------------|
G|-------------------------------------------------|-------------------------------------------------|
D|-------------------------------------------------|-------------------------------------------------|
A|-------------------------------------------------|-------------------------------------------------|
E|-------------------------------------------------|-------------------------------------------------|


E|--------|-------------------------------------------------|-------------7--7--------------------------------|
B|-12-----|-------------------------------------------0--0--|-------------7--7--7-----------------------0--0--|
G|--------|-------------------------------------------0--0--|-9--9--7-----------7-----------------------0--0--|
D|--------|-------------------------------------------0--0--|----------9--------------------------------0--0--|
A|--------|-------------------------------------------------|-------------------------------------------------|
E|--------|-------------------------------------------------|-------------------------------------------------|


E|-------------7--7--7-----------------------------|-------------------------------------------------|
B|-------------7--7--7-----------------------0--0--|-12-10-------------------------------------------|
G|-9--9--7-----------------------------------0--0--|-------11-9--------11-9--------------------------|
D|----------9--------------------------------0--0--|-------------12-9--------12-9-----9--12-9--7--8--|
A|-------------------------------------------------|-------------------------------12----------------|
E|-------------------------------------------------|-------------------------------------------------|


E|-------------------------------------------------|--------|-------------------------------------------------|
B|-------------------------------------------------|--------|-------0--0--7--9--7-----0--0--------------------|
G|-------------------------------------------------|--------|-------0--0-----------9--0--0--7--0--0--0--8-----|
D|-9-----12-12-7--7--12-12-7--7--12-12-7--7--12-12-|--------|-------0--0--------------------------------------|
A|-------------------------------------------------|--------|-------------------------------------------------|
E|-------------------------------------------------|--------|-------------------------------------------------|


E|--------|-------------------------------------------10-10-|--------|-------------------------------------------------|
B|--------|-------0--0--7--9--7-----0--0--------------10-10-|--------|-------0--0--7--9--7-----0--0--------------------|
G|--------|-------0--0-----------9--0--0--7--0--0--0--------|--------|-------0--0-----------9--0--0--7--0--0--0--8-----|
D|--------|-------0--0--------------------------------------|--------|-------0--0--------------------------------------|
A|--------|-------------------------------------------------|--------|-------------------------------------------------|
E|--------|-------------------------------------------------|--------|-------------------------------------------------|


E|--------|-------------------------------------------------|-------------------------------------------------|
B|--------|-------------------------------------------------|-------------------------------------------------|
G|--------|-------------------------------------------------|-------------------------------------------------|
D|--------|-4--4--------------------4--4--4-----------------|-------------------------------------------------|
A|--------|-4--4--------------------4--4--4-----------------|-------5--7--------------5-----5--5--------------|
E|--------|-2--2--------------------2--2--2-----------------|-5--7--------------5--7--------------7--7--7-----|


E|-------------------------------------------------|-------------------------------------------------|
B|-------------------------------------------------|-------------------------------------------------|
G|-------------------------------------------------|-------------------------------------------------|
D|-7--9--7--7--7--7--------------------------------|-------------------------------------------------|
A|-------------------------5-----5--5--------------|-------5--7--------------5-----5--5--------------|
E|-------------------5--7--------------7--7--7-----|-5--7--------------5--7--------------7--7--7-----|


E|-------------------------------------------------|-------------------------------------------------|
B|-------------------------------------------------|-------------------------------------------------|
G|-------------------------------------------------|-------------------------------------------------|
D|-------------------------7--9--7--7--------------|-------------------------------------------------|
A|-5--5--------7--7--------------------7--5--5--5--|-------5--7--------------5-----5--5--------------|
E|-------------------------------------------------|-5--7--------------5--7--------------7--7--7-----|


E|-------------------------------------------------|-------------------------------------------------|
B|-------------------------------------------------|-------------------------------------------------|
G|-------------------------------------------------|-------------------------------------------------|
D|-7--9--7--7--7--7--------------------------------|-------------------------------------------------|
A|-------------------------5-----5--5--------------|-------5--7--------------5-----5--5--------------|
E|-------------------5--7--------------7--7--7-----|-5--7--------------5--7--------------7--7--7-----|


E|-------------------------------------------------|-------------------------------------------------|
B|-------------------------------------------------|-------------------------------------------------|
G|-------------------------------------------------|-------------7-----------------------9--7-----7--|
D|-4--4--------------------4--4--4-----------------|-9--9--9--9--------------------------------9-----|
A|-4--4--------------------4--4--4-----------------|-------------------------------------------------|
E|-2--2--------------------2--2--2-----------------|-------------------------------------------------|


E|-------------------------------------------------|-------------------------------------------------|
B|-------------------------------------------------|-------------------------------------------------|
G|-7--7--------------------------------9--7-----7--|-7--7--------------------------------------------|
D|-------9-----------------------------------9-----|-------9-----9--7-----7--7--7--------------------|
A|-------------------------------------------------|-------------------9-----------9-----7--5-----5--|
E|-------------------------------------------------|-------------------------------------------7-----|


E|-------------------------------------------------|-------------------------------------------------|
B|-------------------------------------------------|-------------------------------------------------|
G|-------------------------------------------------|-7--7--7-----------------------------9--7-----7--|
D|-------------------------------------7-----7--9--|----------9--------------------------------9-----|
A|-5--5--------------------5-----7--9--------------|-------------------------------------------------|
E|-------7-----------5--7--------------------------|-------------------------------------------------|


E|-------------------------------------------------|-------------------------------------------------|
B|-------------------------------------------------|-------------------------------------------------|
G|-7--7--------------------------------9--7-----7--|-7--7--------------------------------------------|
D|-------9-----------------------------------9-----|-------9-----9--7-----7--7--7--------------------|
A|-------------------------------------------------|-------------------9-----------9-----7--5-----5--|
E|-------------------------------------------------|-------------------------------------------7-----|


E|-------------------------------------------------|-------------------------------------------------|
B|-------------------------------------------------|-------------------------------------------------|
G|-------------------------------------------------|-7--7--7-----------------------------9--7-----7--|
D|-------------------------------------7-----7--9--|----------9--------------------------------9-----|
A|-5--5--------------------5-----7--9--------------|-------------------------------------------------|
E|-------7-----------5--7--------------------------|-------------------------------------------------|


E|-------------------------------------------------|-------------------------------------------------|
B|-------------------------------------------------|-------------------------------------------------|
G|-7--7--------------------------------9--7-----7--|-7--7--------------------------------------------|
D|-------9-----------------------------------9-----|-------9-----9--7-----7--7--7--------------------|
A|-------------------------------------------------|-------------------9-----------9-----7--5-----5--|
E|-------------------------------------------------|-------------------------------------------7-----|


E|-------------------------------------------------|-------------------------------------------------|
B|-------------------------------------------------|-------------------------------------------------|
G|-------------------------------------------------|-7--7--7-----------------------------9--7-----7--|
D|-------------------------------------7-----7--9--|----------9--------------------------------9-----|
A|-5--5--------------------5-----7--9--------------|-------------------------------------------------|
E|-------7-----------5--7--------------------------|-------------------------------------------------|


E|-------------------------------------------------|-------------------------------------------------|
B|-------------------------------------------------|-------------------------------------------------|
G|-7--7--------------------------------9--7-----7--|-7--7--------------------------------------------|
D|-------9-----------------------------------9-----|-------9-----9--7-----7--7--7--------------------|
A|-------------------------------------------------|-------------------9-----------9-----7--5-----5--|
E|-------------------------------------------------|-------------------------------------------7-----|


E|--------------------------------------------------|-------------------------------------------------|
B|--------------------------------------------------|-------------------------------------------------|
G|-------------------------------------------9-7----|-7--7--7-----------------------7-----------------|
D|-------------------------------------7---------9--|----------9--------------------------------------|
A|-5--5--------------------5-----7--9---------------|-------------------------------------------------|
E|-------7-----------5--7---------------------------|-------------------------------------------------|


E|-------------------------------------------------|----------------------------------------------------|
B|-------------------------------------------------|----------------------------------------------------|
G|-------8-----------------------9--9--------------|-9--9-8--8-7--7-6--6--------------------------------|
D|-------------------------------------------------|----------------------------9--9-8--8-7--7-6--6-----|
A|-------------------------------------------------|----------------------------------------------------|
E|-------------------------------------------------|----------------------------------------------------|


E|-------------------------------------------------|-------------------------------------------------|
B|-------------------------------------------------|-------------------------------------------------|
G|-------------------------------------------------|-------------------------------------------------|
D|-------------------------------------------------|-7-----6--6--------7--7--------------------------|
A|----8--8-7--7-6--6-5--5--------------5--5--7--9--|-------------------------------------5--5--------|
E|-------------------------------5--7--------------|-------------------------------------------------|


E|-------------------------------------7---7---|-7------------------|
B|-------------------------------------7---7---|-7------------------|
G|---------------------------------------------|--------------------|
D|---------------------------------------------|--------------------|
A|-------7--7--------9--9----------------------|--------------------|
E|---------------------------------------------|--------------------|





Track 2: Gitar 2

E|-------------------------------------------------|-------------------------------------------------|
B|-------------------------------------------------|-------------------------------------------------|
G|-------------7-----------------------9--7-----7--|-7--7--------------------------------------------|
D|-9--9--9--9--------------------------------9-----|-------9-----------------------------------------|
A|-------------------------------------------------|-------------------------------------------------|
E|-------------------------------------------------|-------------------------------------------------|


E|-------------------------------------------------|-------------------------------------------------|
B|-------------------------------------------------|-------------------------------------------------|
G|-------------------------------------------------|-------------------------------------------------|
D|-------------7-----------------------7--6-----6--|-6--6--------------------------------------------|
A|-9--9--9--9--------------------------------9-----|-------7-----------------------------------------|
E|-------------------------------------------------|-------------------------------------------------|


E|-------------------------------------------------|-------------------------------------------------|
B|-------------------------------------------------|-------------------------------------------------|
G|-------------7-----------------------9--7-----7--|-7--7--------------------------------9--7-----7--|
D|-9--9--9--9--------------------------------9-----|-------9-----------------------------------9-----|
A|-------------------------------------------------|-------------------------------------------------|
E|-------------------------------------------------|-------------------------------------------------|


E|-------------------------------------------------|-------------------------------------------------|
B|-------------------------------------------------|-------------------------------------------------|
G|-7--7--------------------------------------------|-------------------------------------------------|
D|-------9-----9--7-----7--7--7--------------------|-------------------------------------7-----7--9--|
A|-------------------9-----------9-----7--5-----5--|-5--5--------------------5-----7--9--------------|
E|-------------------------------------------7-----|-------7-----------5--7--------------------------|


E|-------------------------------------------------|-------------------------------------------------|
B|-------------------------------------------------|-------------------------------------------------|
G|-7--7--7-----------------------------9--7-----7--|-7--7--------------------------------------------|
D|----------9--------------------------------9-----|-------9-----------------6--6--------7--7--------|
A|-------------------------------------------------|-------------------------------------------------|
E|-------------------------------------------------|-------------------------------------------------|


E|-------------------------------------------------|-------------------------|-------------------------------------------------|
B|-------------------------------------------------|-------------------------|-------0--0--10-10-0--9--------------------------|
G|-------------------------------------------------|-------------------------|-------0--0--9--9--0--9--------------------------|
D|-------------------------------------------------|-------9--9--9--9--9--9--|-------0--0--------0-----------------------------|
A|-------5--5--------------7--7--------9--9--------|-------------------------|-------------------------------------------------|
E|-------------------------------------------------|-------------------------|-------------------------------------------------|


E|-------------------------------------------------|-------------------------------------------------|
B|-------0--0--10-10-0--9--------------------------|-------0--0--10-10-0--9--------------------------|
G|-------0--0--9--9--0--9--------------------------|-------0--0--9--9--0--9--------------------------|
D|-------0--0--------0-----------------------------|-------0--0--------0-----------------------------|
A|-------------------------------------------------|-------------------------------------------------|
E|-------------------------------------------------|-------------------------------------------------|


E|-------------------------------------------------|-------------------------------------------------|
B|-------0--0--10-10-0--9--------------------------|-------0--0--10-10-0--9--------------------------|
G|-------0--0--9--9--0--9--------------------------|-------0--0--9--9--0--9--------------------------|
D|-------0--0--------0-----------------------------|-------0--0--------0-----------------------------|
A|-------------------------------------------------|-------------------------------------------------|
E|-------------------------------------------------|-------------------------------------------------|


E|-------------------------------------------------|-------------------------------------------------|
B|-------0--0--10-10-0--9--------------------------|-------0--0--10-10-0--9--------------------------|
G|-------0--0--9--9--0--9--------------------------|-------0--0--9--9--0--9--------------------------|
D|-------0--0--------0-----------------------------|-------0--0--------0-----------------------------|
A|-------------------------------------------------|-------------------------------------------------|
E|-------------------------------------------------|-------------------------------------------------|


E|-------------------------------------------------|-------------------------------------------------|
B|-------0--0--10-10-0--9--------------------------|-------0--0--10-10-0--9--------------------------|
G|-------0--0--9--9--0--9--------------------------|-------0--0--9--9--0--9--------------------------|
D|-------0--0--------0-----------------------------|-------0--0--------0-----------------------------|
A|-------------------------------------------------|-------------------------------------------------|
E|-------------------------------------------------|-------------------------------------------------|


E|-------------------------------------------------|-------------------------------------------------|
B|-------0--0--10-10-0--9--------------------------|-------0--0--10-10-0--9--------------------------|
G|-------0--0--9--9--0--9--------------------------|-------0--0--9--9--0--9--------------------------|
D|-------0--0--------0-----------------------------|-------0--0--------0-----------------------------|
A|-------------------------------------------------|-------------------------------------------------|
E|-------------------------------------------------|-------------------------------------------------|


E|-------------------------------------------------|-------------------------------------------------|
B|-------0--0--10-10-0--9--------------------------|-------0--0--10-10-0--9--------------------------|
G|-------0--0--9--9--0--9--------------------------|-------0--0--9--9--0--9--------------------------|
D|-------0--0--------0-----------------------------|-------0--0--------0-----------------------------|
A|-------------------------------------------------|-------------------------------------------------|
E|-------------------------------------------------|-------------------------------------------------|


E|-------------------------------------------------|-------------------------------------------------|
B|-------0--0--10-10-0--9--------------------------|-------0--0--10-10-0--9--------------------------|
G|-------0--0--9--9--0--9--------------------------|-------0--0--9--9--0--9--------------------------|
D|-------0--0--------0-----------------------------|-------0--0--------0-----------------------------|
A|-------------------------------------------------|-------------------------------------------------|
E|-------------------------------------------------|-------------------------------------------------|


E|-------------------------------------------------|-------------------------------------------------|
B|-------0--0--10-10-0--9--------------------------|-------0--0--10-10-0--9--------------------------|
G|-------0--0--9--9--0--9--------------------------|-------0--0--9--9--0--9--------------------------|
D|-------0--0--------0-----------------------------|-------0--0--------0-----------------------------|
A|-------------------------------------------------|-------------------------------------------------|
E|-------------------------------------------------|-------------------------------------------------|


E|-------------------------------------------------|-------------------------------------------------|
B|-------0--0--10-10-0--9--------------------------|-------0--0--10-10-0--9--------------------------|
G|-------0--0--9--9--0--9--------------------------|-------0--0--9--9--0--9--------------------------|
D|-------0--0--------0-----------------------------|-------0--0--------0-----------------------------|
A|-------------------------------------------------|-------------------------------------------------|
E|-------------------------------------------------|-------------------------------------------------|


E|-------------------------------------------------|-------------------------------------------------|
B|-------0--0--10-10-0--9--------------------------|-------0--0--10-10-0--9--------------------------|
G|-------0--0--9--9--0--9--------------------------|-------0--0--9--9--0--9--------------------------|
D|-------0--0--------0-----------------------------|-------0--0--------0-----------------------------|
A|-------------------------------------------------|-------------------------------------------------|
E|-------------------------------------------------|-------------------------------------------------|


E|-------------------------------------------------|-------------------------------------------------|
B|-------0--0--10-10-0--9--------------------------|-------0--0--10-10-0--9--------------------------|
G|-------0--0--9--9--0--9--------------------------|-------0--0--9--9--0--9--------------------------|
D|-------0--0--------0-----------------------------|-------0--0--------0-----------------------------|
A|-------------------------------------------------|-------------------------------------------------|
E|-------------------------------------------------|-------------------------------------------------|


E|-------------------------------------------------|-------------------------------------------------|
B|-------0--0--10-10-0--9--------------------------|-------0--0--10-10-0--9--------------------------|
G|-------0--0--9--9--0--9--------------------------|-------0--0--9--9--0--9--------------------------|
D|-------0--0--------0-----------------------------|-------0--0--------0-----------------------------|
A|-------------------------------------------------|-------------------------------------------------|
E|-------------------------------------------------|-------------------------------------------------|


E|-------------------------------------------------|-------------------------------------------------|
B|-------0--0--10-10-0--9--------------------------|-------0--0--10-10-0--9--------------------------|
G|-------0--0--9--9--0--9--------------------------|-------0--0--9--9--0--9--------------------------|
D|-------0--0--------0-----------------------------|-------0--0--------0-----------------------------|
A|-------------------------------------------------|-------------------------------------------------|
E|-------------------------------------------------|-------------------------------------------------|


E|-------------------------------------------------|-------------------------------------------------|
B|-------0--0--10-10-0--9--------------------------|-------0--0--10-10-0--9--------------------------|
G|-------0--0--9--9--0--9--------------------------|-------0--0--9--9--0--9--------------------------|
D|-------0--0--------0-----------------------------|-------0--0--------0-----------------------------|
A|-------------------------------------------------|-------------------------------------------------|
E|-------------------------------------------------|-------------------------------------------------|


E|-------------------------------------------------|-------------------------------------------------|
B|-------0--0--10-10-0--9--------------------------|-------0--0--10-10-0--9--------------------------|
G|-------0--0--9--9--0--9--------------------------|-------0--0--9--9--0--9--------------------------|
D|-------0--0--------0-----------------------------|-------0--0--------0-----------------------------|
A|-------------------------------------------------|-------------------------------------------------|
E|-------------------------------------------------|-------------------------------------------------|


E|--------|-------------------------------------------------|-------------------------------------------------|
B|--------|-------------------------------------------------|-------------------------------------------------|
G|--------|-------------7-----------------------9--7-----7--|-7--7--------------------------------9--7-----7--|
D|--------|-9--9--9--9--------------------------------9-----|-------9-----------------------------------9-----|
A|--------|-------------------------------------------------|-------------------------------------------------|
E|--------|-------------------------------------------------|-------------------------------------------------|


E|-------------------------------------------------|-------------------------------------------------|
B|-------------------------------------------------|-------------------------------------------------|
G|-7--7--------------------------------------------|-------------------------------------------------|
D|-------9-----9--7-----7--7--7--------------------|-------------------------------------------------|
A|-------------------9-----------9-----7--5-----5--|-5--5--------------------------5-----------6--6--|
E|-------------------------------------------7-----|-------7-----------7-----------------------------|


E|-------------------------------------------------|--------|-------------------------------------------------|
B|-------0--0--9-----0--0--0--0--9-----0--0--9-----|--------|-------0--0--9-----0--0--0--0--9-----0--0--9-----|
G|-------0--0--9-----------0--0--9-----0--0--9-----|--------|-------0--0--9-----------0--0--9-----0--0--9-----|
D|-------0--0--------------0--0--------0--0--------|--------|-------0--0--------------0--0--------0--0--------|
A|-------------------------------------------------|--------|-------------------------------------------------|
E|-------------------------------------------------|--------|-------------------------------------------------|


E|--------|-------------------------------------------------|--------|-------------------------------------------------|
B|--------|-------0--0--9-----0--0--0--0--9-----0--0--9-----|--------|-------0--0--9-----0--0--0--0--9-----0--0--9-----|
G|--------|-------0--0--9-----------0--0--9-----0--0--9-----|--------|-------0--0--9-----------0--0--9-----0--0--9-----|
D|--------|-------0--0--------------0--0--------0--0--------|--------|-------0--0--------------0--0--------0--0--------|
A|--------|-------------------------------------------------|--------|-------------------------------------------------|
E|--------|-------------------------------------------------|--------|-------------------------------------------------|


E|-------------------------------------------------|-------------------------------------------------|
B|-------------------------------------------------|-------------------------------------------------|
G|-------------------------------------------------|-------------------------------------------------|
D|-4--4--------------------4--4--4-----------------|-------------------------------------------------|
A|-4--4--------------------4--4--4-----------------|-------5--7--------------5-----5--5--------------|
E|-2--2--------------------2--2--2-----------------|-5--7--------------5--7--------------7--7--7-----|


E|-------------------------------------------------|-------------------------------------------------|
B|-------------------------------------------------|-------------------------------------------------|
G|-------------------------------------------------|-------------------------------------------------|
D|-7--9--7--7--7--7--------------------------------|-------------------------------------------------|
A|-------------------------5-----5--5--------------|-------5--7--------------5-----5--5--------------|
E|-------------------5--7--------------7--7--7-----|-5--7--------------5--7--------------7--7--7-----|


E|-------------------------------------------------|-------------------------------------------------|
B|-------------------------------------------------|-------------------------------------------------|
G|-------------------------------------------------|-------------------------------------------------|
D|-------------------------7--9--7--7--------------|-------------------------------------------------|
A|-5--5--------7--7--------------------7--5--5--5--|-------5--7--------------5-----5--5--------------|
E|-------------------------------------------------|-5--7--------------5--7--------------7--7--7-----|


E|-------------------------------------------------|-------------------------------------------------|
B|-------------------------------------------------|-------------------------------------------------|
G|-------------------------------------------------|-------------------------------------------------|
D|-7--9--7--7--7--7--------------------------------|-------------------------------------------------|
A|-------------------------5-----5--5--------------|-------5--7--------------5-----5--5--------------|
E|-------------------5--7--------------7--7--7-----|-5--7--------------5--7--------------7--7--7-----|


E|-------------------------------------------------|-------------------------------------------------|
B|-------------------------------------------------|-------0--0--10-10-0--9--------------------------|
G|-------------------------------------------------|-------0--0--9--9--0--9--------------------------|
D|-4--4--------------------4--4--4-----------------|-------0--0--------0-----------------------------|
A|-4--4--------------------4--4--4-----------------|-------------------------------------------------|
E|-2--2--------------------2--2--2-----------------|-------------------------------------------------|


E|-------------------------------------------------|-------------------------------------------------|
B|-------0--0--10-10-0--9--------------------------|-------0--0--10-10-0--9--------------------------|
G|-------0--0--9--9--0--9--------------------------|-------0--0--9--9--0--9--------------------------|
D|-------0--0--------0-----------------------------|-------0--0--------0-----------------------------|
A|-------------------------------------------------|-------------------------------------------------|
E|-------------------------------------------------|-------------------------------------------------|


E|-------------------------------------------------|-------------------------------------------------|
B|-------0--0--10-10-0--9--------------------------|-------0--0--10-10-0--9--------------------------|
G|-------0--0--9--9--0--9--------------------------|-------0--0--9--9--0--9--------------------------|
D|-------0--0--------0-----------------------------|-------0--0--------0-----------------------------|
A|-------------------------------------------------|-------------------------------------------------|
E|-------------------------------------------------|-------------------------------------------------|


E|-------------------------------------------------|-------------------------------------------------|
B|-------0--0--10-10-0--9--------------------------|-------0--0--10-10-0--9--------------------------|
G|-------0--0--9--9--0--9--------------------------|-------0--0--9--9--0--9--------------------------|
D|-------0--0--------0-----------------------------|-------0--0--------0-----------------------------|
A|-------------------------------------------------|-------------------------------------------------|
E|-------------------------------------------------|-------------------------------------------------|


E|-------------------------------------------------|-------------------------------------------------|
B|-------0--0--10-10-0--9--------------------------|-------0--0--10-10-0--9--------------------------|
G|-------0--0--9--9--0--9--------------------------|-------0--0--9--9--0--9--------------------------|
D|-------0--0--------0-----------------------------|-------0--0--------0-----------------------------|
A|-------------------------------------------------|-------------------------------------------------|
E|-------------------------------------------------|-------------------------------------------------|


E|-------------------------------------------------|-------------------------------------------------|
B|-------0--0--10-10-0--9--------------------------|-------0--0--10-10-0--9--------------------------|
G|-------0--0--9--9--0--9--------------------------|-------0--0--9--9--0--9--------------------------|
D|-------0--0--------0-----------------------------|-------0--0--------0-----------------------------|
A|-------------------------------------------------|-------------------------------------------------|
E|-------------------------------------------------|-------------------------------------------------|


E|-------------------------------------------------|-------------------------------------------------|
B|-------0--0--10-10-0--9--------------------------|-------0--0--10-10-0--9--------------------------|
G|-------0--0--9--9--0--9--------------------------|-------0--0--9--9--0--9--------------------------|
D|-------0--0--------0-----------------------------|-------0--0--------0-----------------------------|
A|-------------------------------------------------|-------------------------------------------------|
E|-------------------------------------------------|-------------------------------------------------|


E|-------------------------------------------------|-------------------------------------------------|
B|-------0--0--10-10-0--9--------------------------|-------0--0--10-10-0--9--------------------------|
G|-------0--0--9--9--0--9--------------------------|-------0--0--9--9--0--9--------------------------|
D|-------0--0--------0-----------------------------|-------0--0--------0-----------------------------|
A|-------------------------------------------------|-------------------------------------------------|
E|-------------------------------------------------|-------------------------------------------------|


E|-------------------------------------------------|-------------------------------------------------|
B|-------------------------------------------------|-------0--0--9-----0--0--0--0--9-----0--0--9-----|
G|-------------------------------------------------|-------0--0--9-----------0--0--9-----0--0--9-----|
D|-------------------------------------------------|-------0--0--------------0--0--------0--0--------|
A|-4--4--------------------------5-----------6--6--|-------------------------------------------------|
E|-------7-----------7-----------------------------|-------------------------------------------------|


E|--------|-------------------------------------------------|--------|-------------------------------------------------|
B|--------|-------0--0--9-----0--0--0--0--9-----0--0--9-----|--------|-------0--0--9-----0--0--0--0--9-----0--0--9-----|
G|--------|-------0--0--9-----------0--0--9-----0--0--9-----|--------|-------0--0--9-----------0--0--9-----0--0--9-----|
D|--------|-------0--0--------------0--0--------0--0--------|--------|-------0--0--------------0--0--------0--0--------|
A|--------|-------------------------------------------------|--------|-------------------------------------------------|
E|--------|-------------------------------------------------|--------|-------------------------------------------------|


E|--------|-------------------------------------------------|-------------------------------------------------|
B|--------|-------0--0--9-----0--0--0--0--9-----0--0--9-----|-------------------------------------------------|
G|--------|-------0--0--9-----------0--0--9-----0--0--9-----|-------------------------------------------------|
D|--------|-------0--0--------------0--0--------0--0--------|-4--4--------------------4--4--4-----------------|
A|--------|-------------------------------------------------|-4--4--------------------4--4--4-----------------|
E|--------|-------------------------------------------------|-2--2--------------------2--2--2-----------------|


E|--------|--------|--------|--------|-------------------------------------------------|
B|--------|--------|--------|--------|-------------------------------------------------|
G|--------|--------|--------|--------|-------------------------------------------------|
D|--------|--------|--------|--------|-------------------------------------------------|
A|--------|--------|--------|--------|-------------------------------------------------|
E|--------|--------|--------|--------|-------------------------------------------------|


E|-------------------------------------------------|-10-10-10-10-10-10-10-10-------------------------|
B|-------------------------------------------------|-------------------------10-10-10-10-7-----------|
G|-------------------------------------------------|----------------------------------------9--7-----|
D|-------------------------------------------------|----------------------------------------------9--|
A|-------------------------------------------------|-------------------------------------------------|
E|-------------------------------------------------|-------------------------------------------------|


E|-------------------------------------------------|--------|-------------------------------------------------|
B|-------------------------------------------------|--------|-------------------------------------------------|
G|-9--9--9--9--7-----------7--7--7--7--7--7--------|--------|-------------------------------------------------|
D|----------------9--7-----------------------9--7--|-9------|-------------------------------------------------|
A|----------------------9--------------------------|--------|-------------------------------------------------|
E|-------------------------------------------------|--------|-------------------------------------------------|


E|-----------------------------------------------------|-------------------------------------------------|
B|--------------7--7---------7--7---------7--7---------|----------------------0--5--0--6--0--7--0--10-0--|
G|-9--9--9--7---7--7--9--7---7--7--9--7---7--7--9--7---|-9--9--7-----7--9--7-----------------------------|
D|------------9------------9------------9------------9-|----------9--------------------------------------|
A|-----------------------------------------------------|-------------------------------------------------|
E|-----------------------------------------------------|-------------------------------------------------|


E|--------|-------------------------------------------------|-------------------------------------------------|
B|-12-----|-------------------------------------------------|-12-12-12-9--10-8--9--7--8--6--7--5--6--3-----3--|
G|--------|-------------------------------------------------|-------------------------------------------4-----|
D|--------|-------------------------------------------------|-------------------------------------------------|
A|--------|-------------------------------------------------|-------------------------------------------------|
E|--------|-------------------------------------------------|-------------------------------------------------|


E|-------10-------12-------13-------14-14-14-------|-------------------------------------------------|
B|-------------------------------------------------|-------------------0--0--------------10-10-10----|
G|-10-11----11-12----12-13----13-14-14-14-14-------|-------------------0--0--9--9--7-----9--9--9-----|
D|-------------------------------------------------|-------------------0--0-----------9--------------|
A|-------------------------------------------------|-------------------------------------------------|
E|-------------------------------------------------|-------------------------------------------------|


E|-------------------------------------------------|-------------------------------------------------|
B|-------------------0--0--------------10-10-10----|-12-10-------------------------------------------|
G|-------------------0--0--9--9--7-----9--9--9-----|-------11-9--------11-9--------------------------|
D|-------------------0--0-----------9--------------|-------------12-9--------12-9-----9--12-9--7--8--|
A|-------------------------------------------------|-------------------------------12----------------|
E|-------------------------------------------------|-------------------------------------------------|


E|-------------------------------------------------|-------------------------------------------------|
B|-------------------------------------------------|-------0--0--9-----0--0--0--0--9-----0--0--9-----|
G|-------------------------------------------------|-------0--0--9-----------0--0--9-----0--0--9-----|
D|-------------4--4--------4--4--------7--7--------|-------0--0--------------0--0--------0--0--------|
A|-------2--2--------2--2--------5--5--------6--6--|-------------------------------------------------|
E|-------------------------------------------------|-------------------------------------------------|


E|--------|-------------------------------------------------|--------|-------------------------------------------------|
B|--------|-------0--0--9-----0--0--0--0--9-----0--0--9-----|--------|-------0--0--9-----0--0--0--0--9-----0--0--9-----|
G|--------|-------0--0--9-----------0--0--9-----0--0--9-----|--------|-------0--0--9-----------0--0--9-----0--0--9-----|
D|--------|-------0--0--------------0--0--------0--0--------|--------|-------0--0--------------0--0--------0--0--------|
A|--------|-------------------------------------------------|--------|-------------------------------------------------|
E|--------|-------------------------------------------------|--------|-------------------------------------------------|


E|--------|-------------------------------------------------|-------------------------------------------------|
B|--------|-------0--0--9-----0--0--0--0--9-----0--0--9-----|-------------------------------------------------|
G|--------|-------0--0--9-----------0--0--9-----0--0--9-----|-------------------------------------------------|
D|--------|-------0--0--------------0--0--------0--0--------|-4--4--------------------4--4--4-----------------|
A|--------|-------------------------------------------------|-4--4--------------------4--4--4-----------------|
E|--------|-------------------------------------------------|-2--2--------------------2--2--2-----------------|


E|-------------------------------------------------|-------------------------------------------------|
B|-------------------------------------------------|-------------------------------------------------|
G|-------------------------------------------------|-------------------------------------------------|
D|-------------------------------------------------|-7--9--7--7--7--7--------------------------------|
A|-------5--7--------------5-----5--5--------------|-------------------------5-----5--5--------------|
E|-5--7--------------5--7--------------7--7--7-----|-------------------5--7--------------7--7--7-----|


E|-------------------------------------------------|-------------------------------------------------|
B|-------------------------------------------------|-------------------------------------------------|
G|-------------------------------------------------|-------------------------------------------------|
D|-------------------------------------------------|-------------------------7--9--7--7--------------|
A|-------5--7--------------5-----5--5--------------|-5--5--------7--7--------------------7--5--5--5--|
E|-5--7--------------5--7--------------7--7--7-----|-------------------------------------------------|


E|-------------------------------------------------|-------------------------------------------------|
B|-------------------------------------------------|-------------------------------------------------|
G|-------------------------------------------------|-------------------------------------------------|
D|-------------------------------------------------|-7--9--7--7--7--7--------------------------------|
A|-------5--7--------------5-----5--5--------------|-------------------------5-----5--5--------------|
E|-5--7--------------5--7--------------7--7--7-----|-------------------5--7--------------7--7--7-----|


E|-------------------------------------------------|-------------------------------------------------|
B|-------------------------------------------------|-------------------------------------------------|
G|-------------------------------------------------|-------------------------------------------------|
D|-------------------------------------------------|-4--4--------------------4--4--4-----------------|
A|-------5--7--------------5-----5--5--------------|-4--4--------------------4--4--4-----------------|
E|-5--7--------------5--7--------------7--7--7-----|-2--2--------------------2--2--2-----------------|


E|-------------------------------------------------|-------------------------------------------------|
B|-------------------------------------------------|-------------------------------------------------|
G|-------------7-----------------------9--7-----7--|-7--7--------------------------------9--7-----7--|
D|-9--9--9--9--------------------------------9-----|-------9-----------------------------------9-----|
A|-------------------------------------------------|-------------------------------------------------|
E|-------------------------------------------------|-------------------------------------------------|


E|-------------------------------------------------|-------------------------------------------------|
B|-------------------------------------------------|-------------------------------------------------|
G|-7--7--------------------------------------------|-------------------------------------------------|
D|-------9-----9--7-----7--7--7--------------------|-------------------------------------7-----7--9--|
A|-------------------9-----------9-----7--5-----5--|-5--5--------------------5-----7--9--------------|
E|-------------------------------------------7-----|-------7-----------5--7--------------------------|


E|-------------------------------------------------|-------------------------------------------------|
B|-------------------------------------------------|-------------------------------------------------|
G|-7--7--7-----------------------------9--7-----7--|-7--7--------------------------------9--7-----7--|
D|----------9--------------------------------9-----|-------9-----------------------------------9-----|
A|-------------------------------------------------|-------------------------------------------------|
E|-------------------------------------------------|-------------------------------------------------|


E|-------------------------------------------------|-------------------------------------------------|
B|-------------------------------------------------|-------------------------------------------------|
G|-7--7--------------------------------------------|-------------------------------------------------|
D|-------9-----9--7-----7--7--7--------------------|-------------------------------------7-----7--9--|
A|-------------------9-----------9-----7--5-----5--|-5--5--------------------5-----7--9--------------|
E|-------------------------------------------7-----|-------7-----------5--7--------------------------|


E|-------------------------------------------------|-------------------------------------------------|
B|-------------------------------------------------|-------------------------------------------------|
G|-7--7--7-----------------------------9--7-----7--|-7--7--------------------------------9--7-----7--|
D|----------9--------------------------------9-----|-------9-----------------------------------9-----|
A|-------------------------------------------------|-------------------------------------------------|
E|-------------------------------------------------|-------------------------------------------------|


E|-------------------------------------------------|-------------------------------------------------|
B|-------------------------------------------------|-------------------------------------------------|
G|-7--7--------------------------------------------|-------------------------------------------------|
D|-------9-----9--7-----7--7--7--------------------|-------------------------------------7-----7--9--|
A|-------------------9-----------9-----7--5-----5--|-5--5--------------------5-----7--9--------------|
E|-------------------------------------------7-----|-------7-----------5--7--------------------------|


E|-------------------------------------------------|-------------------------------------------------|
B|-------------------------------------------------|-------------------------------------------------|
G|-7--7--7-----------------------------9--7-----7--|-7--7--------------------------------9--7-----7--|
D|----------9--------------------------------9-----|-------9-----------------------------------9-----|
A|-------------------------------------------------|-------------------------------------------------|
E|-------------------------------------------------|-------------------------------------------------|


E|-------------------------------------------------|--------------------------------------------------|
B|-------------------------------------------------|--------------------------------------------------|
G|-7--7--------------------------------------------|-------------------------------------------9-7----|
D|-------9-----9--7-----7--7--7--------------------|-------------------------------------7---------9--|
A|-------------------9-----------9-----7--5-----5--|-5--5--------------------5-----7--9---------------|
E|-------------------------------------------7-----|-------7-----------5--7---------------------------|


E|-------------------------------------------------|-------------------------------------------------|
B|-------------------------------------------------|-------------------------------------------------|
G|-7--7--7-----------------------7-----------------|-------8-----------------------9--9--------------|
D|----------9--------------------------------------|-------------------------------------------------|
A|-------------------------------------------------|-------------------------------------------------|
E|-------------------------------------------------|-------------------------------------------------|


E|----------------------------------------------------|-------------------------------------------------|
B|----------------------------------------------------|-------------------------------------------------|
G|-9--9-8--8-7--7-6--6--------------------------------|-------------------------------------------------|
D|----------------------------9--9-8--8-7--7-6--6-----|-------------------------------------------------|
A|----------------------------------------------------|----8--8-7--7-6--6-5--5--------------5--5--7--9--|
E|----------------------------------------------------|-------------------------------5--7--------------|


E|-------------------------------------------------|---------------------------------------------|
B|-------------------------------------------------|---------------------------------------------|
G|-------------------------------------------------|---------------------------------------------|
D|-7-----6--6--------7--7--------------------------|-------------------------------------9---9---|
A|-------------------------------------5--5--------|-------7--7--------9--9--------------9---9---|
E|-------------------------------------------------|-------------------------------------7---7---|


E|--------------------|
B|--------------------|
G|--------------------|
D|-9------------------|
A|-9------------------|
E|-7------------------|


Tablature Viewer

Tablature di atas menggunakan tablature viewer yang dapat dimainkan, dapat bersuara layaknya menggunakan aplikasi Tablature seperti TuxGuitar atau Guitar Pro, jika menggunakan smartphone, saran kami gunakan layar landscape atau mode tampilan desktop. Untuk tablature yang berisi banyak instrumen, silahkan pilih instrumen di sebelah kiri.

Tentang Tablature

Tablature atau tabulature, atau tab gitar adalah bentuk notasi musik yang menunjukkan penjarian instrumen daripada nada musik.

Tab gitar di atas khusus hanya bisa dibaca untuk gitar, tidak bisa untuk instrumen musik lainnya. Cara membacanya adalah baris paling atas tablature merupakan senar paling kecil atau paling bawah, sedangkan angka pada garis adalah posisi jari kiri saat senar dipetik.

  e|---0---1---3---
  B|---0---1---0---
  G|---1---2---0---
  D|---2---3---0---
  A|---2---3---2---
  E|---0---1---3---
       E   F   G

Teknik Gitar dalam Tablature

Ada teknik khusus untuk memainkan gitar yang hanya berlaku untuk gitar, ini juga disimbolkan dalam tablature, berikut listnya:

Teknik Simbol Tab
Fret hand muting x
Palm-muting P.M.
Slide up /
Slide down \
Hammer-ons h
Pull-offs p
Trills tr~~~~~~~~
Bends b
Bend and release 5b7r9
Pre-bend and release p
Vibrato ~~~~~~~~~~~~~
Upstrokes ^
Downstrokes V
Natural harmonics <5>
Artificial harmonics A.H.
Tapped Harmonics 0(12)
Pinch Harmonics P.H.
Ghost Notes X atau ( )
Tapping T

Tablature di sini bukan dibuat oleh musisi aslinya, tentu saja kami tidak bisa menjamin keakuratan tablature ini, tapi kami selalu berusaha. Menulis tablature juga bukan pekerjaan mudah, jika tidak terlalu mirip mohon dimaklumi. Untuk suara gitar, kami sengaja tidak memakai sound yang lebih realistis seperti halnya RSE karena faktor ukuran file, semakin besar soundfont akan menyebabkan loading player semakin lama, belum lagi faktor koneksi internet yang bisa menyebabkan tablature viewer tidak bisa dimainkan jika soundfont terlalu besar.

Lihat Juga

Gitagram adalah portal referensi edukasi musik yang menyediakan not angka, not balok, tab gitar dan kunci gitar sebagai sarana belajar. Seperti halnya buku lagu, namun kami bisa diakses secara online via komputer dan smartphone, berbeda dengan buku yang umumnya berbayar, layanan kami gratis untuk siapa saja.
Kami menggunakan teknologi untuk menampilkan not angka secara akurat, not balok yang bisa dimainkan, dan tab gitar yang bisa dilihat secara online dan terformat rapi tanpa perlu instal software seperti Guitar Pro atau TuxGuitar.

Mengapa Harus Kami?

Memang ada banyak website atau aplikasi yang menampilkan chord gitar, dengan database lagu yang berjumlah puluhan ribu, tapi setelah kami cek, ternyata banyak kunci gitar yang tidak akurat, dan antar web saling menyalin satu sama lain. Hal tersebut bisa jadi karena pemilik websitenya hanya mengutamakan kuantitas konten, tanpa memikirkan keakuratan chord gitar, atau bahkan tidak tahu mengenai teori musik.
Perbedaan kami dengan situs chord gitar pada umumnya adalah: orang di balik layar kami adalah seorang musisi, bisa aransemen musik, bisa menulis notasi angka, not balok maupun tablature, maka tentu saja untuk membaca chord gitar saja pastinya lebih mudah daripada menulis partitur.

Webmaster kami juga berusaha menampilkan teknologi musik yang bisa dilihat dan dimainkan di web browser PC maupun mobile, tak perlu instal software khusus musik untuk membaca partitur dan tablature yang ada di sini.
Chord Gitar dengan Diagram Lirik dan kunci gitar dengan diagram chord gitar untuk memudahkan belajar.
Not Angka Terformat Rapi Dengan penulisan khusus standar not angka (bukan cuma angka saja)
Notasi Balok Interaktif Seperti halnya menggunakan software khusus partitur
Tablature Gitar Interaktif Tablature Gitar, Bass dan instrumen musik lainnya yang bisa dimainkan dan dicetak

Konten yang ada di sini hanya sebagai media pembelajaran dan sebagai referensi, kami tidak bisa menjamin 100% akurat meskipun kami sudah berusaha seakurat mungkin. Not Angka, chord gitar dan tab gitar bukan ditulis langsung oleh pencipta lagunya, tapi dari kontributor kami dan dari berbagai sumber. Berdasarkan apa yang kami dengar lalu menuliskannya semampu kami, tentu saja kami tidak bisa 100% akurat terutama saat membuat Tab Gitar, wajar jika ada perbedaan posisi jari antara gitaris asli dan tablature yang ada di sini
Kami tidak menampilkan konten berupa audio, video serta konten berhak cipta lainnya. Jika anda ingin mendengar salah satu lagu yang chord gitar atau tablaturenya ada di sini, silahkan dengarkan via saluran resminya seperti via YouTube, JOOX, Spotify dll.


GitagramKontenFeedback
Tentang KamiRekomendasiHubungi Kami
Privacy PolicyTangga LaguRequest & Support
Syarat dan KetentuanTerbaruSubmit
Copyright: All lyrics are property and copyright of their owners. All lyrics provided for educational purposes and personal use only.
tab-gitar/super-funk-funky-kopral.txt · Terakhir diubah: 2021/09/21 10:40 oleh Arya
Browse: A B C D E FG HI JK LM NOP QR S T U VW XY Z