Billie Jean Bass Tab

 
Tabbed By : Lee Austin
e-mail: leeaustin1990@hotmail.com
 
Tuning: Standard (EADG)
 
 
G|--------------------------|--------------------------|
D|--4-----2--4--2-----------|--4-----2--4--2-----------|
A|-----4-----------4--2--4--|-----4-----------4--2--4--|  x8
E|--------------------------|--------------------------|
 
G|--4-----2--4--------------|--4-----2--4--------------|
D|-----4-----------4--2--4--|-----4-----------4--2--4--|
A|--------------------------|--------------------------|
E|--------------------------|--------------------------|
 
G|--------------------------|--------------------------|
D|--4-----2--4--2-----------|--4-----2--4--2-----------|
A|-----4-----------4--2--4--|-----4-----------4--2--4--|
E|--------------------------|--------------------------|
 
G|--4-----2--4--------------|--4-----2--4--------------|
D|-----4-----------4--2--4--|-----4-----------4--2--4--|
A|--------------------------|--------------------------|
E|--------------------------|--------------------------|
 
G|--------------------------|--------------------------|
D|--4-----2--4--2-----------|--4-----2--4--2-----------|
A|-----4-----------4--2--4--|-----4-----------4--2--4--|  x3
E|--------------------------|--------------------------|
 
G|--4-----2--4--------------|--4-----2--4--------------|
D|-----4-----------4--2--4--|-----4-----------4--2--4--|
A|--------------------------|--------------------------|
E|--------------------------|--------------------------|
 
G|--------------------------|-----------------------|
D|--4-----2--4--2-----------|--0------L-0-0------2--|
A|-----4-----------4--2--4--|-----------------------|
E|--------------------------|-----------------------|
 
G|---------------------|-----------------------|---------------------|
D|--4------------------|--0------L-0-0------2--|--4------------------|
A|------------------4--|-----------------------|------------------4--|
E|---------2-----------|-----------------------|---------2-----------|
 
G|-----------------------|----------------------|
D|--0------L-0-0------2--|--4-------------------|
A|-----------------------|----------------2--4--|
E|-----------------------|---------2------------|
 
G|------------------------|--------------------------|
D|--0------L-0-0----0-----|--------------------------|
A|---------------------0--|--4--4--4--4--4--4--4--4--|
E|------------------------|--------------------------|
 
G|--------------------------|--------------------------|
D|--4-----2--4--2-----------|--4-----2--4--2-----------|
A|-----4-----------4--2--4--|-----4-----------4--2--4--| x2
E|--------------------------|--------------------------|
 
G|--4-----2--4--------------|--4-----2--4--------------|
D|-----4-----------4--2--4--|-----4-----------4--2--4--|
A|--------------------------|--------------------------|
E|--------------------------|--------------------------|
 
G|--------------------------|--------------------------|
D|--4-----2--4--2-----------|--4-----2--4--2-----------|
A|-----4-----------4--2--4--|-----4-----------4--2--4--|
E|--------------------------|--------------------------|
 
G|--4-----2--4--------------|--4-----2--4--------------|
D|-----4-----------4--2--4--|-----4-----------4--2--4--|
A|--------------------------|--------------------------|
E|--------------------------|--------------------------|
 
G|--------------------------|--------------------------|
D|--4-----2--4--2-----------|--4-----2--4--2-----------|
A|-----4-----------4--2--4--|-----4-----------4--2--4--| x3
E|--------------------------|--------------------------|
 
G|--4-----2--4--------------|--4-----2--4--------------|
D|-----4-----------4--2--4--|-----4-----------4--2--4--|
A|--------------------------|--------------------------|
E|--------------------------|--------------------------|
 
G|--------------------------|--------------------------|
D|--4-----2--4--2-----------|--4-----2--4--2-----------|
A|-----4-----------4--2--4--|-----4-----------4--2--4--|
E|--------------------------|--------------------------|
 
G|--4-----2--4--------------|--4-----2--4--------------|
D|-----4-----------4--2--4--|-----4-----------4--2--4--|
A|--------------------------|--------------------------|
E|--------------------------|--------------------------|
 
G|--------------------------|--------------------------|
D|--4-----2--4--2-----------|--4-----2--4--2-----------|
A|-----4-----------4--2--4--|-----4-----------4--2--4--| x3
E|--------------------------|--------------------------|
 
G|--4-----2--4--------------|--4-----2--4--------------|
D|-----4-----------4--2--4--|-----4-----------4--2--4--|
A|--------------------------|--------------------------|
E|--------------------------|--------------------------|
 
G|--------------------------|--------------------------|
D|--4-----2--4--2-----------|--4-----2--4--2-----------|
A|-----4-----------4--2--4--|-----4-----------4--2--4--|
E|--------------------------|--------------------------|
 
G|-----------------------|---------------------|-----------------------|
D|--0------L-0-0------2--|--4------------------|--0------L-0-0------2--|
A|-----------------------|------------------4--|-----------------------|
E|-----------------------|---------2-----------|-----------------------|
 
G|---------------------|-----------------------|----------------------|
D|--4------------------|--0------L-0-0------2--|--4-------------------|
A|------------------4--|-----------------------|----------------2--4--|
E|---------2-----------|-----------------------|---------2------------|
 
G|------------------------|--------------------------|
D|--0------L-0-0----0-----|--------------------------|
A|---------------------0--|--4--4--4--4--4--4--4--4--|
E|------------------------|--------------------------|
 
G|--------------------------|--------------------------|
D|--4-----2--4--2-----------|--4-----2--4--2-----------|
A|-----4-----------4--2--4--|-----4-----------4--2--4--| x2
E|--------------------------|--------------------------|
 
G|--4-----2--4--------------|--4-----2--4--------------|
D|-----4-----------4--2--4--|-----4-----------4--2--4--|
A|--------------------------|--------------------------|
E|--------------------------|--------------------------|
 
G|--------------------------|--------------------------|
D|--4-----2--4--2-----------|--4-----2--4--2-----------|
A|-----4-----------4--2--4--|-----4-----------4--2--4--| x3
E|--------------------------|--------------------------|
 
G|--4-----2--4--------------|--4-----2--4--------------|
D|-----4-----------4--2--4--|-----4-----------4--2--4--|
A|--------------------------|--------------------------|
E|--------------------------|--------------------------|
 
G|--------------------------|--------------------------|
D|--4-----2--4--2-----------|--4-----2--4--2-----------|
A|-----4-----------4--2--4--|-----4-----------4--2--4--|
E|--------------------------|--------------------------|
 
G|--4-----2--4--------------|--4-----2--4--------------|
D|-----4-----------4--2--4--|-----4-----------4--2--4--|
A|--------------------------|--------------------------|
E|--------------------------|--------------------------|
 
G|--------------------------|--------------------------|
D|--4-----2--4--2-----------|--4-----2--4--2-----------|
A|-----4-----------4--2--4--|-----4-----------4--2--4--| x5
E|--------------------------|--------------------------|
 
G|--4-----2--4--------------|--4-----2--4--------------|
D|-----4-----------4--2--4--|-----4-----------4--2--4--|
A|--------------------------|--------------------------|
E|--------------------------|--------------------------|
 
G|--------------------------|--------------------------|
D|--4-----2--4--2-----------|--4-----2--4--2-----------|
A|-----4-----------4--2--4--|-----4-----------4--2--4--| x3
E|--------------------------|--------------------------|
 
G|--4-----2--4--------------|--4-----2--4--------------|
D|-----4-----------4--2--4--|-----4-----------4--2--4--|
A|--------------------------|--------------------------|
E|--------------------------|--------------------------|
 
G|--------------------------|--------------------------|
D|--4-----2--4--2-----------|--4-----2--4--2-----------|
A|-----4-----------4--2--4--|-----4-----------4--2--4--|
E|--------------------------|--------------------------|
 
G|--4-----2--4--------------|--4-----2--4--------------|
D|-----4-----------4--2--4--|-----4-----------4--2--4--|
A|--------------------------|--------------------------|
E|--------------------------|--------------------------|
 
G|--------------------------|--------------------------|
D|--4-----2--4--2-----------|--4-----2--4--2-----------|
A|-----4-----------4--2--4--|-----4-----------4--2--4--| x10
E|--------------------------|--------------------------|
 
 
**************************
 
L - tied note
 
**************************
Tags: michael jackson, bass, tablature
TitleType
Ben
‣ Michael Jackson
Chords
Baby Be Mine
‣ Michael Jackson
Chords
All In Your Name
‣ Michael Jackson
Chords
A Place With No Name
‣ Michael Jackson
Chords
Don’t Matter To Me
‣ Drake ‣ Michael Jackson
Chords