Artist Profile

Aamuisin Chords

Intro:
   C      D    Em          C      D              Em
e|--------------------------------------------------------|
H|--------------------------------------------------------|
G|-12--\---9---12--\---9---12--\--9---/--14--14--12--\--9-|
D|-12--\---9---12--\---9---12--\--9---/--14--14--12--\--9-|
A|--------------------------------------------------------|
E|--------------------------------------------------------|
 
Em
Osta asunto, hoida koira 
                         C | Am
Pidä pihaa vaimon kanssa 
Em                                                        C | Am
Hanki lapset jos on saumaa, yks tai kaks, mut hankkikaa ne 
C
Tutustu naapureihin 
      Am                        Em
Vietä niiden kanssa joskus aikaa 
C                       Am                    Em
Järjestäkää kimppukyyti jos on sama duunimatka 
 
C                          Em
Viiltävä tuuli käy aamuisin 
C                            Em
Kiiltävään porttiin ja koivuihin 
 
                     C
   Laita riippukeinu kiinni keväällä 
                   Em
   Pidä jemmarahaa pankkitilillä 
                   C
   Seiso väkevästi sänkys edessä 
        Em
   Aamuisin 
                     C
   Laita riippukeinu kiinni keväällä 
                   Am
   Pese kasvosi ja käytä pyyhettä 
        Em
   Aamuisin 
 
Em
Urheile jos jaksat 
 
pysyt kunnossa ja nukut hyvin
 
Riffi(basso+kitara)
E|-0-2-3-5-3-2-| x2
 
Em                                             
Hoida lasku lähikauppaan niin saat suuren alennuksen 
(tai suuret alennukset)
C                            Am                       Em 
Jokainen markka jonka maksat veroja auttaa sinua myös 
C
Lukita muista ovet ja auto 
Am                      Em
Kesällä yö on valoisa yö 
C                       Em
Viiltävä tuuli käy aamuisin 
C                            Em
Kiiltävään porttiin ja koivuihin 
 
                     C
   Laita riippukeinu kiinni keväällä 
                   Em
   Pidä jemmarahaa pankkitilillä 
                   C          Am
   Seiso väkevästi sänkys edessä 
        Em
   Aamuisin. 
                     C
   Laita riippukeinu kiinni keväällä 
                   Am
   Pese kasvosi ja käytä pyyhettä 
        Em
   Aamuisin 
 
 
"Soolo":
 
e|----------------------------------|
H|----------------------------------|
G|----------------------------------|
D|-2--5--10-9--7--10--9--7--10-9--7-|
A|-x--x--x--x--x--x---x--x--x--x--x-|
E|-0--3--8--7--5--8---7--5--8--7--5-|
 
e|-------------------------------|
H|-------------------------------|
G|-----------------------------9-|
D|-2--5--10-9--7--10--9--7--5--x-|
A|-x--x--x--x--x--x---x--x--x--7-|
E|-0--3--8--7--5--8---7--5--3----|
 
Em                                                    (Am)
Muista kaverit entiset ja soita niille silloin tällöin
Em                                            (Am)
Pidä niistä listaa jotka joulukortin lähettää
   C
On tapana kiittää, katso silmiin, 
Am                           Em
kätellä voit kun lähdet pois 
C                          Am                   Em
Isä ja äiti ajattelee sua, isä ja äiti ajattelee 
 
                     C
   Laita riippukeinu kiinni keväällä 
                   Em
   Pidä jemmarahaa pankkitilillä 
                   C           Am
   Seiso väkevästi sänkys edessä 
        Em
   Aamuisin. 
                     C
   Laita riippukeinu kiinni keväällä 
                   Em
   Pidä jemmarahaa pankkitilillä 
                   C
   Seiso väkevästi sänkys edessä 
        Em
   Aamuisin. 
 
                     C
   Laita riippukeinu kiinni keväällä 
                   Am
   Pese kasvosi ja käytä pyyhettä 
        Em          C   Am     Em
   Aamuisin.   Aamuisin.  Aamuisin 
 
 
Outro:
basso soittaa riffiä
 
e|--------------------------------|
H|--------------------------------|
G|-12--\---9--/--14--14--12--\--9-|
D|-12--\---9--/--14--14--12--\--9-|
A|--------------------------------|
E|--------------------------------|

Tags: easy guitar chords, song lyrics, Zen Café
TitleType