Favorite

Charlie Brown Chords


Capo 3rd fret

[Intro]
Em            C        G
E|-----3-------3---------3-------3--3---
B|--3-------3-----3--1-----1--0--------0
G|--0-------0-----0--0-----0--0--------0
D|--------------------------------------
A|--------------------------------------
E|--------------------------------------
--3-----3----3--|
-----0-----0----|
-----0-----0----|
----------------|
----------------|
----------------|
     Em         C        Em           
E|--------------------------------------
B|-----0----0----0-----------0----0----0
G|--0h2--0h2--0h2---2--0--0h2--0h2--0h2-
D|-------0h2-----------2-------0h2------
A|--------------------------------------
E|--------------------------------------
(h=hammer on)
Am                 Em
--------||---3--|
--------||------|
--2--0-+||------|
-------+||---2--|
--------||------|
--------||------|

Em        C     G
        I stole a key
      Em                      C
Took a car downtown where the lost boys 
meet
         G                Am           
I took a car downtown and took what they
             Em
offered me
    C    G
To set me free
          Em                    C
I saw the lights go down at the end of 
the scene
          G                         
I saw the lights go down and they're 
Am
standing in front of me

Em C G G Em C Em Am

Em           C      G
        My scarecrow dreams
          Em                   
When they smashed my heart into 
 C
smithereens
         G                     Am      
I'll be a bright red rose come bursting 
             Em
the concrete
      C     G
Be a cartoon heart
C
Light a fire, from a spark
D                            C
Light a fire, a flame in my heart
            C
We'll run wild
                         Em
We'll be glowing in the dark

C G G Em C Em Am

Em C G G Em C Em Am

         D
All the boys, all the girls
         C              G
All the madness in the world
         D
All the boys, all the girls
         C              G
All the madness that occurs
         D
All the highs, all the lows
        C
As the room is spinning, oh
C
We'll run wild oh
                            Em
We'll start glowing in the dark

Em  C  G  Em C  Em  Am x2

C
So we soar luminous and wired
                         G
We'll be glowing in the dark

[Piano Outro]
Tags: easy guitar chords, song lyrics, Coldplay
TitleType
Let Somebody Go
‣ Coldplay ‣ Selena Gomez
Chords
Everglow
‣ Coldplay
Chords
Viva La Vida
‣ Coldplay
Chords
Every Teardrop Is a Waterfall
‣ Coldplay
Chords
Green Eyes
‣ Coldplay
Chords