Capo: 6th fret
[Intro]

Strum the bottom two notes 
simultaneously

  Em          C           G           D
e|--------------------------------------
B|--------------------------------------
G|-------0-----------0-----------0------
D|----2-----------2-----------0---------
A|-2-----------3-----------2-----------5
E|-0--------0--3--------0--3--------0--5
----------|
----------|
-----0----|
--4-------|
----------|
----------|

  Em          C           G           D
e|--------------------------------------
B|--------------------------------------
G|-------0-----------0-----------0------
D|----2-----------2-----------0--------4
A|-2-----------3-----------2-----------5
E|-0--------0--3--------0--3--------0--5
----------|
----------|
----------|
----------|
----------|
----------|


[Chorus 1]

  Em          C           G           D
e|--------------------------------------
B|--------------------------------------
G|-------0-----------0-----------0------
D|----2-----------2-----------0---------
A|-2-----------3-----------2-----------5
E|-0--------0--3--------0--3--------0--5
----------|
----------|
-----0----|
--4-------|
----------|
----------|

Say I'm getting married on a porch in 
Vegas

  Em          C           G           D
e|--------------------------------------
B|--------------------------------------
G|-------0-----------0-----------0------
D|----2-----------2-----------0---------
A|-2-----------3-----------2-----------5
E|-0--------0--3--------0--3--------0--5
----------|
----------|
-----0----|
--4-------|
----------|
----------|

We can get hitched and have a couple of 
kids

  Em          C           G           D
e|--------------------------------------
B|--------------------------------------
G|-------0-----------0-----------0------
D|----2-----------2-----------0---------
A|-2-----------3-----------2-----------5
E|-0--------0--3--------0--3--------0--5
----------|
----------|
-----0----|
--4-------|
----------|
----------|

None of 'em will look at all like us and
our neighbors all be a bit too much and
you'll

  Em          C           G           D
e|--------------------------------------
B|--------------------------------------
G|-------0-----------0-----------0------
D|----2-----------2-----------0--------4
A|-2-----------3-----------2-----------5
E|-0--------0--3--------0--3--------0--5
----------|
----------|
----------|
----------|
----------|
----------|

live out in the desert with a man you 
never loved


[Bridge]

       Em            C             
Is this it? What you want? What you 
G  D
wanted?
             Em      C    G        D
Do you need love? Am I enough for you?
   Em          C         G      D      
In time you'll find I've got my baggage 
 C
..too


[Chorus 2]

Em            C                G       
Say you'll get famous and we'll die with
    D
our names
         Em           C              G 
In every paper, every news report is any
      D
consolation
       Em              C               
To the people that you love and all the 
G               D
people that you hate
         Em               C           
But will love you all the same because 
        G     D
you're beautiful

Em            C              G         
Say you didn't see it, that I saw right 
 D
through you
Em             C              G   
Say you didn't mean it that I mean 
       D
nothing to you
         Em            C              
Like you said, Do you believe me? That 
G             D
I'll be right for you
         Em  C            G    D
Say you love me like you used to


[Verse]

Em C  G  G

       Em                             
We were born splaying in the wreckage, 
       C
Buried down on birds with stones
         Em                        
Bore my weight upon your shoulders, 
          G
Water as warm as morning suns
         Em                          
I don't think quite like I used to, I 
      C
got a bed to call my own
       Em                           
I see stars and painted lies, Broken 
 G
glass upon your road
         Em               C
Now I'm driving home too soon


[Refrain]

Em     C
      Woah 
         G                D
Say you love me like you used to

      Em
And we'll vacation first class
     C
I'm breaking your fall, You're breaking 
my ass
       G                             
You're working all day, Hating on all 
     D
the bitches that work, You say you're 
ok, 
        Em
You're faking, fucked up
C
Drinking all day, you give me a cup
    G                                D
And I'll be damned if we can make it out
of this alive, baby


[Bridge]

Em C
      G                               
I say I'll be damned if we can make it 
D
out of this alive
       Em            C             
But is this what you want? What you 
G   D
wanted?
             Em      C    G        D
Do you need love? Am I enough for you?
   Em           C        G       D     
In time you'll find I've got my baggage 
  C
..too


[Chorus]

       Em            C               
Oh and Say we'll get famous and we'll 
G            D
die with our names
         Em           C              G 
In every paper, every news report is any
      D
consolation
       Em              C               
To the people that you love and all the 
G               D
people that you hate
         Em               C           
But will love you all the same because 
        G     D
you're beautiful

Em            C              G         
Say you didn't see it, that I saw right 
 D
through you
Em             C              G   
Say you didn't mean it that I mean 
       D
nothing to you
         Em            C              
Like you said, Do you believe me? That 
G             D
I'll be right for you
         Em  C            G    D
Say you love me like you used to


[Refrain]

Em     C
      Woah 
         G                D
Say you love me like you used to

      Em
And we'll vacation first class
     C
I'm breaking your fall, You're breaking 
my ass
       G                             
You're working all day, Hating on all 
     D
the bitches that work, You say you're 
ok, 
        Em
You're faking, fucked up
C
Drinking all day, you give me a cup
    G                                D
And I'll be damned if we can make it out
of this alive, baby


[Bridge]

Em C
      G                               
I say I'll be damned if we can make it 
D
out of this alive
       Em            C             
But is this what you want? What you 
G   D
wanted?
             Em      C    G        D
Do you need love? Am I enough for you?
   Em           C        G       D     
In time you'll find I've got my baggage 
  C
..too


[Chorus 1]

Em             C            G       
Say we'll get married on a porch in 
D
Vegas
Em           C                 G        
We can get hitched and have a couple of 
D
kids
Tags: easy guitar chords, song lyrics, Rainbow Kitten Surprise
TitleType