Jeune Et Con Chords

[Intro] x2
Em C G D

[Verse]
Em            C           G           
Encore un jour se lève sur la planète 
        D
France
         Em                 C       
Et je sors doucement de mes rêves je 
G              D
rentre dans la danse
             Em           C         
Comme toujours il est huit heures du 
           G             D
soir j'ai dormi tout le jour
         Em            C               
Je me suis encore couché trop tard je me
G              D
suis rendu sourd encore

[Verse 2]
Em        C         G                   
Encore une soirée où la jeunesse France
D
      Em            C               G  
Encore, elle va bien s'amuser puisqu'ici
            D
rien n'a de sens
       Em       C               G      
Alors on va danser faire semblant d'être
    D
heureux
         Em         C               
Pour aller gentiment se coucher mais 
G             D           D     D
demain rien n'ira mieux

[Chorus]
            Em       C                
Puisqu'on est jeune et con, puisqu'ils 
   G         D
sont vieux et fous
           Em             C        
Puisque des hommes crèvent sous les 
        G                D
ponts, mais ce monde s'en fout
           Em        C              
Puisqu'on est que des pions contents 
     G       D
d'être à genoux
          Em                   
Puisque je sais qu'un jour nous 
C           G        D          
gagnerons à devenir fous, 
 Em    C  G  D
devenir fous

[Instrumental]
Em C G D

[Verse 3]
Em         C               G          
Encore un jour se lève sur la planète
D
France
           Em             C         
Mais j'ai depuis longtemps perdu mes 
        G                D
rêves je connais trop la danse
        Em                C         
Comme toujours il est huit heures du 
         G             D
soir j'ai dormi tout le jour
          Em              C    
Mais je sais qu'on est quelques 
         G             D
milliards à chercher l'amour 
encore

[Verse 4]
Em        C          G            D
Encore une soirée où la jeunesse France
    Em               C           G   
Encore elle va bien s'amuser dans cet 
        D
état d'urgence
        Em       C                G
Alors elle va danser faire semblant 
     D
d'exister
       Em          C           G       
Qui sait si l'on ferme les yeux on vivra
     D
vieux

[Chorus]
            Em       C                
Puisqu'on est jeune et con, puisqu'ils 
   G         D
sont vieux et fous
           Em             C        
Puisque des hommes crèvent sous les 
        G                D
ponts, mais ce monde s'en fout
           Em        C             G
Puisqu'on est que des pions contents 
         D
d'être à genoux
          Em                   
Puisque je sais qu'un jour nous 
C           G          D        
gagnerons à devenir fous, 
 Em    C  G  D
devenir fous

[Instrumental] x8
Em C G D

[Outro]
Em         C              G           
Encore un jour se lève sur la planète
D
France
         Em             C              
Où j'ai depuis longtemps perdu mes rêves
  G                D
je connais trop la danse
            Em            C         
Comme toujours il est huit heures du 
         G             D
soir j'ai dormi tout le jour
           Em               C  
Mais je sais qu'on est quelques 
          G        D
milliards
Em
A chercher l'amour

[Arpège de la vidéo:]
e|--------------------------------------
B|-----0------1-------0--------3--------
G|---0--0---0---0---0---0----2---0------
D|-------------------------0------------
A|--------3-----------------------------
E|-0--------------3---------------------
-----|
-----|
-----|
-----|
-----|
-----|

[Riff intro de la vidéo:]
e|--------------------------------------
B|-----3-----1----0-------------------3-
G|---0-----0----0----0-2---0---0----0---
D|-2-------------------------4----2-----
A|-------3------------------------------
E|--------------------------------------
------------------------------|
----1--1-0---------3-0--------|
--0---------0-2--2------------|
------------------------------|
3-----------------------------|
------------------------------|

e|-----0--------------------------------
B|-------3-----1--0-1-0------3-0-------3
G|---0-------0----------2--2---------0--
D|-2-------------------------------2----
A|---------3----------------------------
E|--------------------------------------
Ralentir sur la fin de l'intro.
-------------------------------|
-----1---0---------3-------3---|
---0---0------2--2---2---2---2-|
------------0----------0-------|
-3-----------------------------|
-------------------------------|
Tags: easy guitar chords, song lyrics, Saez
TitleType