Favorite

Mind Over Matter Chords

[Intro]
C  Em  Am  
x2
 
 
[Intro riff]
 
e|------12---15----------|-15---12---------------|------12---15----------|
B|-13--------------------|-----------------------|-13--------------------|
G|-----------------------|-----------14----------|-----------------------|
D|-----------------------|-----------------------|-----------------------|
A|-----------------------|-----------------------|-----------------------|
E|-----------------------|-----------------------|-----------------------|
 
                                  (over verse)
e|-15---12-----------------------|-------------------|
B|-------------------------------|-------------------|
G|-----------14-12---------------|-------------------|
D|-------------------15-14---12--|-14----------------|
A|-------------------------------|-------------------|
E|-------------------------------|-------------------|
 
 
[Verse]
 
C
Mind over matter
                 Em      Am
Does it matter to any of us
C
Don't change the subject
    Em             Am
I'm heavy on your love
C
I missed that train
         Em        Am
New York City: it rains
C                          Em
Fly to East L.A. in big jet planes
     Am                F
You know you're on my mind
 
 
[Chorus]
 
(F)
And if the world don't break
C         G
I'll be shaking it
F                              C       Em
'Cause I'm a young man after all! OooOOooh!
F
And when the seasons change
C          G       F
Will you stand by me?
                                C     Em    C
'Cause I'm a young man built to fall OooOOooh!
 
C  Em  Am  x2
 
 
[Verse]
 
C
Mind over matter
                 Em          Am
I'm in tatters thinking about her
C
Taste my disaster
       Em         Am
It's heavy on my tongue
 
C
All the lights aglow
   Em    Am
Tokyo: snows
C                                Em
Go to watch the show; curtain's closed
     Am               F
I'm watching you this time
 
 
[Chorus]
 
(F)
And if the world don't break
C         G     F
I'll be shaking it
                              C       Em
'Cause I'm a young man after all! OooOOooh!
F
And when the seasons change
C          G       F
Will you stand by me?
                                C    Em    C
'Cause I'm a young man built to fall OooOOooh!
 
F
I missed that train
          C        G
New York City: it rains
F                         C
Fly to East L.A.in big jet planes
     Em
You know you're on my
F
All the lights aglow
   C    G
Tokyo: snows
F                                C
Go to watch the show; curtain's closed
     Em               C
I'm watching you this time
 
 
[Bridge]
 
C  Em  Am
 
C                        Em      Am
Mind over matter
C                        Em      Am
Mind over matter
                      F
You know you're on my mind
 
C  G  F  C  G
 
F
And if the world don't break
C         G
I'll be shaking it
F                              C       Em
'Cause I'm a young man after all! OooOOooh!
F
(I missed that train)
And when the seasons change
C          G
Will you stand by me?
F
(Fly to East L.A.)
                                C         Em
'Cause I'm a young man built to fall  OOooooOoH!
F
(all the lights aglow)
                        C        G
And if the world don't break
(Tokyo: snows)
F
Go to watch the show
           C      Em
Curtain's closed
F                           C
And when the seasons change
G                    F
Will you stand by me?
                                  C    Em
'Cause I'm a young man built to fall  Oooh OooOoh!

Tags: easy guitar chords, song lyrics, Young the Giant
TitleType
Cough Syrup
‣ Young the Giant
Chords