Artist Profile

Stor Mand Chords

[Intro]
   Gm            Bb            F             C
e|-----------------------------------------------------|
B|-11---10------------10------------10-----------------|
G|-----------10--12--------10--12--------10--12--------|
D|-----------------------------------------------------|
A|-----------------------------------------------------|
E|-----------------------------------------------------|
 
 
[Verse 1]
                        Gm        Bb
Jeg' i Jylland, brænder Cali-weed
                        F             C
Min' tanker kører om en Evergreen (Uh-ah)
                         Gm         Bb
Vi teamer op om godt halvanden time
                     F              C
På Grønnegade med et dollargrin (Uh-ah)
 
 
[Pre-chorus]
                    Gm            Bb
Du siger, du ruller op, hvis jeg rister
      F                     C
Imens morgenerne bli'r til nætter
        Gm             Bb
Alle er blå – blå silhuetter
             F                C
Jeg vil bar' gå endnu længere med dig
 
 
[Chorus]
Gm           Bb            F             C
Driver langs åen, jeg ser månen bli'r blokeret af dig
Gm            Bb            F                     C
Ned' på Den Sidste er vi de første til at gå vores vej
         Gm                         Bb
Ta'r dig ind, ta'r dig nu, ta'r dig sommeren ud
         F                     C
Her, jeg gi'r dig mit hjerte i Århus
Gm         Bb            F
Har aldrig danset med en stor mand
   C
En stor mand som dig
 
   Gm            Bb            F             C
e|--------------------------------------------------------|
B|-11---10------------10------------10--------------------|
G|-----------10--12--------10--12--------10--12---9---10--|
D|--------------------------------------------------------|
A|--------------------------------------------------------|
E|--------------------------------------------------------|
 
   Gm            Bb            F             C
e|-----------------------------------------------------|
B|-11---10------------10------------10-----------------|
G|-----------10--12--------10--12--------10--12--------|
D|-----------------------------------------------------|
A|-----------------------------------------------------|
E|-----------------------------------------------------|
 
 
[Verse 2]
                         Gm       Bb
Og ja, jeg føler, at jeg ejer byen
                    F            C
Som Pablo Escobar i Medellín (Uh-ah)
                    Gm      Bb
Med vinderenergi på Bellevue
                               F           C
Hvor smukke mennesker gi'r mig deja vu (Uh-ah)
 
 
[Pre-chorus]
                    Gm            Bb
Du siger, du ruller op, hvis jeg rister
      F                     C
Imens morgenerne bli'r til nætter
        Gm             Bb
Alle er blå – blå silhuetter
             F                C
Jeg vil bar' gå endnu længere med dig
 
 
[Chorus]
Gm           Bb            F             C
Driver langs åen, jeg ser månen bli'r blokeret af dig
Gm            Bb            F                     C
Ned' på Den Sidste er vi de første til at gå vores vej
         Gm                         Bb
Ta'r dig ind, ta'r dig nu, ta'r dig sommeren ud
         F                     C
Her, jeg gi'r dig mit hjerte i Århus
Gm         Bb            F
Har aldrig danset med en stor mand
   C               Gm   Bb   F   C
En stor mand som dig
 
 
[Bridge]
                           Gm
Der' mange tårer i byen af corny smil
Bb
Ser dig gå alene rundt
F                            C
Ved ikk', hva' du tænker på, nej
              Gm  Bb
Men du gør at jeg har det som en jiggalo
F                          C
Der' på vej til penge lige nu
(Buenas tardes damas y caballeros, 

desde Dinamarca les presento Tobias Rahim y Andreas Odbjerg)
 
 
[Chorus]
Gm           Bb            F             C
Driver langs åen, jeg ser månen bli'r blokeret af dig
Gm            Bb            F                     C
Ned' på Den Sidste er vi de første til at gå vores vej
         Gm                         Bb
Ta'r dig ind, ta'r dig nu, ta'r dig sommeren ud
         F                     C
Her, jeg gi'r dig mit hjerte i Århus
Gm         Bb            F
Har aldrig danset med en stor mand
   C
En stor mand som dig

Tags: easy guitar chords, song lyrics, Tobias Rahim & Andreas Odbjerg
TitleType
Hjem Fra Fabrikken
‣ Andreas Odbjerg
Chords