Favorite

Unknown Legend Chords

[Intro riff]

            G               G          

e|------------3---------------3---------
B|------------0---------------0---------
G|------------0---------------0---------
D|--------0---0-----------0---0---------
A|--2--3------2-----3--2------2-----2--3
E|------------3---------------3---------

    G
------3----|
------0----|
------0----|
--0---0----|
------2----|
------3----|

             C               G

e|------------0---------------3----|
B|------------1---------------0----|
G|------------0---------------0----|
D|------------2-----------0---0----|
A|--3--2------3---------------2----|
E|--------0---x-----0--3------3----|


[Verse]

G
She used to work in a diner, never saw a
woman look finer

I used to order just to watch her float 
          C
across the floor
                G
She grew up in a small town, never put 
her roots down

Daddy always kept movin', so she did 
too.


[Chorus]

              C      G                 
Somewhere on a desert highway she rides 
 C      G
a Harley Davidson
                                  C    
Her long blonde hair flyin' in the wind.
                    G
She's been runnin' half her life
              C         G              
The chrome and steel she rides collidin'
                      C
with the very air she breathes
            G
The air she breathes.


[Repeat intro riff]


[Verse]

G
You know it ain't easy, you got to hold 
on
                                 C
She was an unknown legend in her time.
                  G
Now she's dressin' two kids, lookin' for
a magic kiss

She gets the far away look in her eyes.


[Chorus]

              C      G                 
Somewhere on a desert highway, she rides
  C      G
a Harley Davidson
                                  C    
Her long blonde hair flyin' in the wind.
                    G
She's been runnin' half her life
              C         G              
The chrome and steel she rides collidin'
                      C
with the very air she breathes
            G
The air she breathes.

    G         C   G
e|---3--7--10--12--12--10----10--10--10-
B|--------------------------------------
G|--------------------------------------
D|--------------------------------------
A|--------------------------------------
E|--------------------------------------
-10--10--10--10--|
-----------------|
-----------------|
-----------------|
-----------------|
-----------------|
        C           G
e|---7--3-----3-----------------------
B|-----------5--------3-----------------
G|-----------------4--------------------
D|--------------------------------------
A|--------------------------------------
E|--------------------------------------
-----------------|
-----------------|
-----------------|
-----------------|
-----------------|
-----------------|


[Chorus]

              C      G                 
Somewhere on a desert highway, she rides
  C      G
a Harley Davidson
                                  C    
Her long blonde hair flyin' in the wind.
                    G
She's been runnin' half her life
              C         G      
The chrome and steel she rides, 

collidin' with the very air she 
C
breathes
            G
The air she breathes.

             G               G         
e|------------3---------------3---------
B|------------0---------------0---------
G|------------0---------------0---------
D|--------0---0-----------0---0---------
A|--2--3------2-----3--2------2-----2--3
E|------------3---------------3---------
     G
------3----|
------0----|
------0----|
--0---0----|
------2----|
------3----|

             C
e|------------0---------------|
B|------------1---------------|
G|------------0---------------|
D|------------2-----------0---| Let D 
A|--3--2------3---------------|
E|--------0---x-----0--3------|
note ring out



************************************

| x  Dead note
| \  Slide down

************************************

Tags: easy guitar chords, song lyrics, Neil Young
TitleType
Four Strong Winds
‣ Neil Young
Chords
Heart of Gold
‣ Neil Young
Chords