Artist Profile

Who’ll Stop The Rain Chords

‣ Creedence Clearwater Revival
Creedence Clearwater Revival
Who'll Stop the Rain
Tab by Aleksi Hahko and a little by drumming mama
 
 
[Intro]
 
(G and Em played in the background)
   G                               Em                              G
e|-------3-------|-------3-------|-------3-------|-------3-------|-------3-------|-------3-------|
B|---0-----------|---0-----------|---0-----------|---0-----------|---0-----------|---0-----------|
G|-----0---------|-----0---------|-----0---------|-----0---------|-----0---------|-----0---------|
D|---------------|---------------|---------------|------------0--|---------------|---------------|
A|---------------|---------------|---------------|---------------|---------------|---------------|
E|-3-------------|-3----------2--|-0-------------|-0-------------|-3-------------|-3-------------|
 
 
[Verse 1]
 
G                       C                 G
Long as I remember, the rain been comin' down
G                            C               G
Clouds of mystery pourin' confusion on the ground
 
C                    G
Good men through the ages
C                  G
Tryin' to find the sun
C             D
And I wonder, still I wonder
Em               G
Who'll stop the rain
 
 
[Verse 2]
 
G                             C                  G
I went down Virginia, seeking shelter from the storm
G                 Bm      C                   G
Caught up in the fable, I watched the tower grow
 
C                   G
Five-year plans and new deals
C                 G
Wrapped in golden chains
C             D
And I wonder, still I wonder
Em               G
Who'll stop the rain
 
 
[Instrumental]
 
| C  G  D |(D)      | Am  C  Em |(Em)    D | G       | G       |
 
 
[Verse 3]
 
G                          C                   G
Heard the singers playin', how we cheered for more
    G                   Bm     C               G
The crowd had rushed together, tryin' to keep warm
 
C                   G
Still the rain kept pourin'
C             G
Fallin' on my ears
C             D
And I wonder, still I wonder
Em
Who'll stop the rain...
 
 
[Outro]
 
e|-------3-------|-------3-------|-------3-------|-------3-------|
B|---0-----------|---0-----------|---0-----------|---0-----------|
G|-----0---------|-----0---------|-----0---------|-----0---------|
D|---------------|---------------|---------------|------------0--|
A|---------------|---------------|---------------|---------------|
E|-3-------------|-3----------2--|-0-------------|-0-------------|
 
(repeat pattern until fade out)
Tags: chords, easy, guitar, ukulele, piano, lyrics, Wholl, CCC, Creedence Clearwater Revival