Artist Profile

You Say Chords

‣ Lauren Daigle
[Intro]
   F                                 Am
e|-1-------1-------1-------1-------|-0-------0-------0-------0-------|
B|-----1-------1-------1-------1---|-----1-------1-------1-------1---|
G|---2---2---2---2---2---2---2---2-|---2---2---2---2---2---2---2---2-|
D|-3-------------------------------|---------------------------------|
A|---------------------------------|-0-------------------------------|
E|---------------------------------|---------------------------------|
   1   +   2   +   3   +   4   +     1   +   2   +   3   +   4   +
 
   Dm                                Bb
e|-1-------1-------1-------1-------|-1-------1-------1-------1-------|
B|-----3-------3-------3-------3---|-----3-------3-------3-------3---|
G|---2---2---2---2---2---2---2---2-|---3---3---3---3---3---3---3---3-|
D|-0-------------------------------|---------------------------------|
A|---------------------------------|-1-------------------------------|
E|---------------------------------|---------------------------------|
   1   +   2   +   3   +   4   +     1   +   2   +   3   +   4   +
 
[Verse 1]
F                            Am                     Dm      Bb
I keep fighting voices in my mind that say I'm not enough
F                              Am                   Dm      Bb
Every single lie that tells me I will never measure up
F                              Am                     Dm     Bb
Am I more than just the sum of every high and every low?
F                               Am                     Dm   Bb
Remind me once again just who I am, because I need to know
 
 
[Chorus]
             F                         Am
You say I am loved when I can't feel a thing
             Dm                       Bb
You say I am strong when I think I am weak
             F                      Am
You say I am held when I am falling short
               Dm                         Bb
When I don't belong, oh You say that I am Yours
      F             Am
And I believe, oh I believe
         Dm
What You say of me
    Bb
I believe
 
 
[Verse 2]
    F                              Am                      Dm     Bb
The only thing that matters now is everything You think of me
   F                             Am            Dm       Bb
In You I find my worth, in You I find my identity, o-ooh
 
 
[Chorus]
             F                         Am
You say I am loved when I can't feel a thing
             Dm                       Bb
You say I am strong when I think I am weak
             F                      Am
You say I am held when I am falling short
               Dm                         Bb
When I don't belong, oh You say that I am Yours
      F               Am
And I believe, oh I believe
         Dm
What You say of me
        Bb
Oh, I believe
 
 
[Verse 3]
F                             Am                  Dm          Bb
Taking all I have and now I'm laying it at Your feet
    F                           Am                     Dm      Bb
You have every failure God, and You'll have every victory, o-ooh
 
 
[Chorus]
             F                         Am
You say I am loved when I can't feel a thing
             Dm                       Bb
You say I am strong when I think I am weak
             F                       Am
You say I am held when I am falling short
               Dm                         Bb
When I don't belong, oh You say that I am Yours
       F              Am
And I believe, oh I believe
         Dm
What You say of me
    Bb
I believe
 
 
[Refrain]
       F             Am
Oh I believe, yes I believe
         Dm
What You say of me
       Bb
Oh I believe
 
 
[Outro]
F Am Dm Bb

Tags: chords, easy, guitar, ukulele, piano, lyrics, Lauren Daigle