Beat It Bass Tab

Micheal Jackson - Beat it
 
 
[Intro]
 
G|--------11-8-10-8-------------11-8-10-8---|
D|------8----------11-11------8-----------11|
A|----9---------------------9---------------|
E|-11--------------------11-----------------|(x2)
                    .  .                   .
 
When the Vocals start
 
 
[Verse 1]
 
G|----------------------------------------------------------|
D|----------------------------------------------------------|
A|----------------------------------------------------------|
E|-11-11-11-9-9-9-11-11-11-9-9-9-7-7-7-9-9-9-11-11-11-9-9-9-|(x2)
    .  .  . . . .  .  .  . . . . . . . . . .  .  .  . . . .
 
 
[Chorus]
 
G|--------11-8-10-8-------------11-8-10-8---|
D|------8----------11-11------8-----------11|
A|----9---------------------9---------------|
E|-11--------------------11-----------------|(x3)
                    .  .                   .
 
 
[Verse 2]
 
G|----------------------------------------------------------|
D|----------------------------------------------------------|
A|----------------------------------------------------------|
E|-11-11-11-9-9-9-11-11-11-9-9-9-7-7-7-9-9-9-11-11-11-9-9-9-|(x2)
    .  .  . . . .  .  .  . . . . . . . . . .  .  .  . . . .
 
 
[Chorus]
 
G|--------11-8-10-8-------------11-8-10-8---|
D|------8----------11-11------8-----------11|
A|----9---------------------9---------------|
E|-11--------------------11-----------------|(x4)
                    .  .                   .
 
 
[Bridge]
 
G|--------------------|
D|--------------------|
A|--------------------|
E|-11-11-11--11-11-11-|(x8)
    .  .  .   .  .  . 
 
 
[Solo]
 
G|----------------------------------------------------------|
D|----------------------------------------------------------|
A|----------------------------------------------------------|
E|-11-11-11-9-9-9-11-11-11-9-9-9-7-7-7-9-9-9-11-11-11-9-9-9-|(x2)
    .  .  . . . .  .  .  . . . . . . . . . .  .  .  . . . .
 
 
[Outro]
 
G|--------11-8-10-8-------------11-8-10-8---|
D|------8----------11-11------8-----------11|
A|----9---------------------9---------------|
E|-11--------------------11-----------------|(x8)
                    .  .                   .
 
 
***********************
 
| . staccato note
 
***********************
X
Tags: bass, tablature, tab, Michael Jackson
TitleType
Ben
‣ Michael Jackson
Chords
Baby Be Mine
‣ Michael Jackson
Chords
All In Your Name
‣ Michael Jackson
Chords
A Place With No Name
‣ Michael Jackson
Chords
Don’t Matter To Me
‣ Drake ‣ Michael Jackson
Chords