Artist Profile

Hysteria Bass Tab

‣ Muse
Gitagram Tab Viewer Loading
0%
-
00:00 / 00:00
Zoom

Download Guitar Pro Tablature



Download Tab Buy Me a Coffee

For a better experience, you can play this tab in the Guitar Pro application which is supported by RSE technology which allows for a more realistic guitar sound.
You can download the Guitar Pro Tablature for this song (Hysteria), and then open it in the Guitar Pro app. This software is available for Windows, Mac, Android and iOS platforms.
Guitar Pro is commercial software with interesting features, if you don't have this application, you can also use the TuxGuitar application which can also open Guitar Pro files, but with less features than Guitar Pro.

Disclaimer: Gitagram is not affiliated with Guitar Pro or Tux Guitar. This tablature is for educational purposes only, and we do not guarantee the accuracy of the tablature. It's not created by the original composer of the song, but by users like you who upload it to our service.

[Intro]

G|------------------------------------------------------------------|
D|o-----5---5h7---5-------------------------------5-------5-5---5-7-|
A|o-0-0---0-----0---0-7-0-8-8-7-5-7-----5---5h7-------7-------7-----|
E|----------------------------------0-0---0-----0---0---0-----------|
 
G|-----5---5h7---5---5p4---4p3---3p2--------------------------------|
D|-0-0---0-----0---0-----0-----0-------5---5h7---5-----------------o|
A|-----------------------------------0---0-----0---0-7-0-8-8-7-5-7-o| x4
E|------------------------------------------------------------------|

[Verse]

G|-----------------------------------------------------------------|
D|-----5---5h7---5-------------------------------5-------5-5---5-7-|
A|-0-0---0-----0---0-7-0-8-8-7-5-7-----5---5h7-------7-------7-----|
E|---------------------------------0-0---0-----0---0---0-----------|
G|-----5---5h7---5---5p4---4p3---3p2-------------------------------|
D|-0-0---0-----0---0-----0-----0-------5---5h7---5-----------------|
A|-----------------------------------0---0-----0---0-7-0-8-8-7-5-7-|
E|-----------------------------------------------------------------|
G|-----------------------------------------------------------------|
D|-----5---5h7---5-------------------------------5-------5-5---5-7-|
A|-0-0---0-----0---0-7-0-8-8-7-5-7-----5---5h7-------7-------7-----|
E|---------------------------------0-0---0-----0---0---0-----------|
G|-----5---5h7---5---5p4---4p3-------------------------------------|
D|-0-0---0-----0---0-----0-----0-0---------------------------------|
A|---------------------------------7-0-0-0-5-0-0-0-3-0-0-0-2-0-0-0-|
E|-----------------------------------------------------------------|

[Chorus]

G|-----5-5-3h5-------5-5-5-3h5-------------------------------------|
D|-------------------------------------5-5-3h5-------5-5-5-3h5-----|
A|-3-----------3-3-------------3-0---------------------------------|
E|---------------------------------3-----------3-3-------------3-3-|
G|-----7-7-5h7-------7-7-7-5h7-------------------------------------|
D|-------------------------------------7-7-5h7-------7-7-7-5h7-----|
A|-5-----------5-5-------------5-3-0-----------0-0-------------0-0-|
E|-----------------------------------------------------------------|
G|-----5-5-3h5-------5-5-5-3h5-------------------------------------|
D|-------------------------------------5-5-3h5-------5-5-5-3h5-----|
A|-3-----------3-3-------------3-0---------------------------------|
E|---------------------------------3-----------3-3-------------3-3-|
G|-----7-7-5h7-------7-7-7-5h7-------------------------------------|
D|-----------------------------------------------5-------5-5---5-5-|
A|-5-----------5-5-------------5-3-----5---5-7-------7-------7-----|
E|---------------------------------0-0---0-----0---0---0-----------|

[Interlude]

G|-----------------------------------------------------------------|
D|-----5---5h7---5-------------------------------5-------5-5---5-7-|
A|-0-0---0-----0---0-7-0-8-8-7-5-7-----5---5h7-------7-------7-----|
E|---------------------------------0-0---0-----0---0---0-----------|
G|-----5---5h7---5---5p4---4p3---3p2-------------------------------|
D|-0-0---0-----0---0-----0-----0-------5---5h7---5-----------------|
A|-----------------------------------0---0-----0---0-7-0-8-8-7-5-7-|
E|-----------------------------------------------------------------|

[Verse]

G|-----------------------------------------------------------------|
D|-----5---5h7---5-------------------------------5-------5-5---5-7-|
A|-0-0---0-----0---0-7-0-8-8-7-5-7-----5---5h7-------7-------7-----|
E|---------------------------------0-0---0-----0---0---0-----------|
G|-----5---5h7---5---5p4---4p3---3p2-------------------------------|
D|-0-0---0-----0---0-----0-----0-------5---5h7---5-----------------|
A|-----------------------------------0---0-----0---0-7-0-8-8-7-5-7-|
E|-----------------------------------------------------------------|
G|-----------------------------------------------------------------|
D|-----5---5h7---5-------------------------------5-------5-5---5-7-|
A|-0-0---0-----0---0-7-0-8-8-7-5-7-----5---5h7-------7-------7-----|
E|---------------------------------0-0---0-----0---0---0-----------|
G|-----5---5h7---5---5p4---4p3-------------------------------------|
D|-0-0---0-----0---0-----0-----0-0---------------------------------|
A|---------------------------------7-0-0-0-5-0-0-0-3-0-0-0-2-0-0-0-|
E|-----------------------------------------------------------------|

[Chorus]

G|-----5-5-3h5-------5-5-5-3h5-------------------------------------|
D|-------------------------------------5-5-3h5-------5-5-5-3h5-----|
A|-3-----------3-3-------------3-0---------------------------------|
E|---------------------------------3-----------3-3-------------3-3-|
G|-----7-7-5h7-------7-7-7-5h7-------------------------------------|
D|-------------------------------------7-7-5h7-------7-7-7-5h7-----|
A|-5-----------5-5-------------5-3-0-----------0-0-------------0-0-|
E|-----------------------------------------------------------------|
G|-----5-5-3h5-------5-5-5-3h5-------------------------------------|
D|-------------------------------------5-5-3h5-------5-5-5-3h5-----|
A|-3-----------3-3-------------3-0---------------------------------|
E|---------------------------------3-----------3-3-------------3-3-|
G|-----7-7-5h7-------7-7-7-5h7-------------------------------------|
D|-----------------------------------------5-----------------------|
A|-5-----------5-5-------------5-3-0-0-0-0---0-0-0-0-0-0-5-7-\-----|
E|-----------------------------------------------------------------|

[Bridge]

G|-----------------------------------------------------------------|
D|-----------------------------------------------------------------|
A|-----5---5h7---5---5p4---4p3---3p2---5---5h7---5---5p4---4p3---3p|
E|-0-0---0-----0---0-----0-----0-----0---0-----0---0-----0-----0---|
G|-----------------------------------------------------------------|
D|-----------------------------------------------5-------5-5---5-7-|
A|-2---5---5h7---5---5p4---4p3---3p2---5---5h7-------7-------7-----|
E|---0---0-----0---0-----0-----0-----0---0-----0---0---0-----------|

[Solo]

G|-----------------------------------------------------------------|
D|-----5---5h7---5-------------------------------5-------5-5---5-7-|
A|-0-0---0-----0---0-7-0-8-8-7-5-7-----5---5h7-------7-------7-----|
E|---------------------------------0-0---0-----0---0---0-----------|
G|-----5---5h7---5---5p4---4p3---3p2-------------------------------|
D|-0-0---0-----0---0-----0-----0-------5---5h7---5-----------------|
A|-----------------------------------0---0-----0---0-7-0-8-8-7-5-7-|
E|-----------------------------------------------------------------|
G|-----------------------------------------------------------------|
D|-----5---5h7---5-------------------------------5-------5-5---5-7-|
A|-0-0---0-----0---0-7-0-8-8-7-5-7-----5---5h7-------7-------7-----|
E|---------------------------------0-0---0-----0---0---0-----------|
G|-----5---5h7---5---5p4---4p3-------------------------------------|
D|-0-0---0-----0---0-----0-----0-0---------------------------------|
A|---------------------------------7-0-0-0-5-0-0-0-3-0-0-0-2-0-0-0-|
E|-----------------------------------------------------------------|

[Solo pt2]

G|-----5-5-3h5-------5-5-5-3h5-------------------------------------|
D|-------------------------------------5-5-3h5-------5-5-5-3h5-----|
A|-3-----------3-3-------------3-0---------------------------------|
E|---------------------------------3-----------3-3-------------3-3-|
G|-----7-7-5h7-------7-7-7-5h7-------------------------------------|
D|-------------------------------------7-7-5h7-------7-7-7-5h7-----|
A|-5-----------5-5-------------5-3-0-----------0-0-------------0-0-|
E|-----------------------------------------------------------------|
G|-----5-5-3h5-------5-5-5-3h5-------------------------------------|
D|-------------------------------------5-5-3h5-------5-5-5-3h5-----|
A|-3-----------3-3-------------3-0---------------------------------|
E|---------------------------------3-----------3-3-------------3-3-|
G|-----7-7-5h7-------7-7-7-5h7-------------------------------------|
D|-------------------------------------7-7-5h7---------------------|
A|-5-----------5-5-------------5-3-0-----------0-0-0-0-0-0---------|
E|---------------------------------------------------------3-3-3-3-|

[Chorus]

G|-----5-5-3h5-------5-5-5-3h5-------------------------------------|
D|-------------------------------------5-5-3h5-------5-5-5-3h5-----|
A|-3-----------3-3-------------3-0---------------------------------|
E|---------------------------------3-----------3-3-------------3-3-|
G|-----7-7-5h7-------7-7-7-5h7-------------------------------------|
D|-------------------------------------7-7-5h7-------7-7-7-5h7-----|
A|-5-----------5-5-------------5-3-0-----------0-0-------------0-0-|
E|-----------------------------------------------------------------|
G|-----5-5-3h5-------5-5-5-3h5-------------------------------------|
D|-------------------------------------5-5-3h5-------5-5-5-3h5-----|
A|-3-----------3-3-------------3-0---------------------------------|
E|---------------------------------3-----------3-3-------------3-3-|
G|-----7-7-5h7-------7-7-7-5h7-------------------------------------|
D|-----------------------------------------------------------------|
A|-5-----------5-5-------------5-3-0-0-0-0-0-0-0-7-7-7-7-7-7-\-----|
E|-----------------------------------------------------------------|

[Outro]

G|-----------------------------------------------------------------|
D|-----------------------------------------------------------------|
A|-----5---5h7---5---5p4---4p3---3p2---5---5h7---5---5p4---4p3---3p|
E|-0-0---0-----0---0-----0-----0-----0---0-----0---0-----0-----0---|
G|-------------------------------------------------------------------|--------|
D|o-----------------------------------------------------------------o|--------|
A|o-2---5---5h7---5---5p4---4p3---3p2---5---5h7---5---5p4---4-3-0-3-o|--------|
E|----0---0-----0---0-----0-----0-----0---0-----0---0-----0----------|-0------|
 
Tag: bass tablature, bass tab, muse, Chris Wolstenholme