Artist Profile

Carol Of The Bells Guitar Tab

‣ Christmas Song
[Riff 1]
 
e|--------------------------------------------------|
B|--1--0-1-------1--0-1------1--0-1-------1--0-1----|
G|---------2------------2-----------2------------2--|
D|--------------------------------------------------|
A|--------------------------------------------------|
E|--------------------------------------------------|
 
[Riff 2]
 
e|--------------------------------------------------|
B|--1--0-1-------1--0-1------1--0-1-------1--0-1----|
G|---------2------------2-----------2------------2--|
D|--------------------------------------------------|
A|--0-----------------------------------------------|
E|---------------3-----------1------------0---------|

e|--------------------------------------------------|
B|--1--0-1-------1--0-1------1--0-1-------1--0-1----|
G|---------2------------2-----------2------------2--|
D|--------------------------------------------------|
A|--0-----------------------------------------------|
E|---------------3-----------1------------0---------|
 
[Riff 3]
 
e|--0----0-------0----0------0----0-------0----0----|
B|--1--3---1-----1--3---1----1--3---1-----1--3---1--|
G|--------------------------------------------------|
D|--------------------------------------------------|
A|--0-----------------------------------------------|
E|---------------3-----------1------------0---------|
 
[Solo]
 
e|--5--5-5-3-1---0--0-0-------------0---------------|
B|----------------------3-1--3--3-3---3-------------|
G|----------------------------------------2--2-2-2--|
D|--------------------------------------------------|
A|--0-----------------------------------------------|
E|---------------3-----------1------------0---------|
 
[Other part]
 
e|----------------0----------------------0----------|
B|----------0-1-3---3-1------------0-1-3---3-1------|
G|------1-2--------------------1-2------------------|
D|--2-4--------------------2-4----------------------|
A|--------------------------------------------------|
E|--0-----------0----------0-----------0------------|
 
[Riff 2]
 
e|--------------------------------------------------|
B|--1--0-1-------1--0-1------1--0-1-------1--0-1----|
G|---------2------------2-----------2------------2--|
D|--------------------------------------------------|
A|--0-----------------------------------------------|
E|---------------3-----------1------------0---------|

e|--------------------------------------------------|
B|--1--0-1-------1--0-1------1--0-1-------1--0-1----|
G|---------2------------2-----------2------------2--|
D|--------------------------------------------------|
A|--0-----------------------------------------------|
E|---------------3-----------1------------0---------|
 
[Ending]
 
e|--0------0---------------------|
B|--1---3--1---------------------|
G|------4------2-------------2---|
D|-------------------------------|
A|--0------------------------0---|
E|-------------------------------|
Tags: guitar tabs, tablature, ascii, Misc Christmas Song