Artist Profile

Masdan Mo (Ang Kapaligiran) Guitar Tab

‣ Asin
Song title: Masdan mo ang Kapligiran
Artist: Asin
Tabbed by: Jasper Puzon
Location: MCU Caloocan City
Contact no: 09157333107
E mail address:jasperjavier01@yahoo.com
Tabulare: Whole Song
Difficulty: Novice
Tunning: Standard
 
Para sa lahat na nagmamahal sa kalikasan:
E|--------------------2-----2----------2------2-----------|
B|------------------3---3------------3---3----------------|
G|----------------2-------2--------2-------2--------------|
D|-------0h2---0--------------0---------------------------|
A|------0h2-----------------------------------------------|
E|--------------------------------------------------------|
 
Wala   ka    bang    napapansin
E|-------------3-----3-----------3-----3------------------|
B|---------------3-----------------3----------------------|
G|-----------------0-----------------0--------------------|
D|-----------0----------------0---------------------------|
A|---------2----------------2-----------------------------|
E|-------3----------------3-------------------------------|
 
E|-------------0-----0----------0-------0-----------------|
B|---------------2-----------------2----------------------|
G|-----------2-----2----------2------2--------------------|
D|---------2----------------2-----------------------------|
A|-------0----------------0-------------------------------|
E|--------------------------------------------------------|
 
Sa iyong mga
E|-------------2-----2------------------------------------|
B|-----------3---3----------------------------------------|
G|---------2-------2--------------------------------------|
D|-------0--------------0---------------------------------|
A|--------------------------------------------------------|
E|--------------------------------------------------------|
 
kapaligiran
E|--------------------2-----2----------2------2-----------|
B|------------------3---3------------3---3----------------|
G|----------------2-------2--------2-------2--------------|
D|-------0h2---0--------------0---------------------------|
A|------0h2-----------------------------------------------|
E|--------------------------------------------------------|
 
Kay dumi na ng hangin
E|-------------3-----3-----------3-----3------------------|
B|---------------3-----------------3----------------------|
G|-----------------0-----------------0--------------------|
D|-----------0----------------0---------------------------|
A|---------2----------------2-----------------------------|
E|-------3----------------3-------------------------------|
 
E|-------------0-----0----------0-------0-----------------|
B|---------------2-----------------2----------------------|
G|-----------2-----2----------2------2--------------------|
D|---------2----------------2-----------------------------|
A|-------0----------------0-------------------------------|
E|--------------------------------------------------------|
 
Pati na ang mga ilog
E|-------------2-----2------------------------------------|
B|-----------3---3----------------------------------------|
G|---------2-------2--------------------------------------|
D|-------0--------------0---------------------------------|
A|--------------------------------------------------------|
E|--------------------------------------------------------|
natin
 
[Refrain 1 Strumming]
Bm                  G
Hindi na masama ang pag-unlad
           A                          D
At malayu-layo na rin ang ating narrating
Bm                   G
Ngunit masdan mo ang tubig sa dagat
           A                        D
Dati'y kulay asul ngayo'y naging itim
Tags: easy guitar chords, song lyrics, Asin, tab, tablature