Artist Profile

Mobius Trip Guitar Tab

‣ H.P. Lovecraft
[Intro]
 
e|----3---3---3---3---3---3---3---3---|
B|---1---1---1---1---1---1---1---1----|
G|--2---2---2---2---2---2---2---2-----|
D|------2-------2-------2-------2-----|
A|--0-------0-------0-------0---------|
E|------------------------------------|
 
e|----2---2---2---2---2---2---2---2---|
B|---1---1---1---1---1---1---1---1----|
G|--2---2---2---2---2---2---2---2-----| x2
D|------2-------2-------2-------2-----|
A|--0-------0-------0-------0---------|
E|------------------------------------|
 
(drawn out/ slower than before)
E|----2---2---2---2---2---2-----------|
B|---1---1---1---1---1---1------------|
G|--2---2---2---2---2---2-------------|
D|------2-------2-------2-------------|
A|--0-------0-------0-------0---------|
E|------------------------------------|
 
[Verses]
 
E|----3------2------3------2----------|
B|----1------1------1------1----------|
G|----2------2------2------2----------|
D|----2------0------2------0----------|
A|--0------0------0------0------------|
E|------------------------------------|
 
Walking down the street I feel like crashing
e|----3-------2-------3-------2-------|
B|----1-------1-------1-------1-------|
G|----2-------2-------2-------2-------|
D|----2-------0-------2-------0-------|
A|--0-------0-------0-------0---------|
E|------------------------------------|
 
Everybody’s groovy, all their eyes are flashing
e|----3-------2-------3-------2-------|
B|----1-------1-------1-------1-------|
G|----2-------2-------2-------2-------|
D|----2-------0-------2-------0-------|
A|--0-------0-------0-------0---------|
E|------------------------------------|
 
Do you think that this could be the time
In the world behind the pantomime
 
e|----3-------2--------3-------2------|
B|----1-------1--------1-------1------|
G|----2-------2--------2-------2------|
D|----2-------0--------2-------0------|
A|--0-------0------0-0-------0--------|
E|------------------------------------|
 
Where everybody’s really feeling fine
A thought like that would really blow my mind
e|-----0-------2-----------0------3---|
B|-----1-------1-----------1------0---|
G|-----0-------2-----------0------0---|
D|--2--2----0--0---2-0-----2------2---|
A|-----3---------------2-0------2-----|
E|------------------------------------|
 
e|----3-----3-------------------------|
B|----0-----0-------------------------|
G|----0-----0-------------------------|
D|----2-----2----2-0------------------|
A|--2-----2----------2-0--------------|
E|------------------------------------|
 
(return to beginning of verses,
 repeat for rest of song)
Tags: guitar tabs, tablature, ascii, H.P. Lovecraft