Artist Profile

Naked As We Came Guitar Tab

‣ Iron & Wine
Iron and Wine (singer/songwriter -SUBPOP-)
"Naked as We Came"
CORRECTION TO THE LAST TAB (this makes it much easier)
 
Drop "D" tuning
 
CAPO - 2ND FRET
 
 
[Intro]
 
E|---------------------------------|
B|-------3--------3-------3-------0|
G|---0--------0-------0-------0----|
D|-----4--------4-------4-------4--|
A|-5----------------0--------------|
D|---------0----------------0------|

E|--------------------------------|
B|-------0-------0-------0-------0|
G|---0-------0-------0-------0----|x4
D|-----0-------0-------0-------0--|
A|-----------------2-------0------|
D|-2-------4----------------------|
 
 
[Verse]
 
E|---------------------------------|
B|-------3--------3-------3-------0|
G|---0--------0-------0-------0----|
D|-----4--------4-------4-------4--|
A|-5----------------0--------------|
D|---------0----------------0------|

E|--------------------------------|
B|-------0-------0-------0-------0|
G|---0-------0-------0-------0----|x4
D|-----0-------0-------0-------0--|
A|-----------------2-------0------|
D|-2-------4----------------------|
 
 
[Chorus]
 
E|---------------0-----------------|
B|-------0---------------0---------|
G|---2-------2-------2-------2-----|
D|-----2-------2-------2-------2---|
A|-0-------0-------0-------0-------|
D|---------------------------------|

E|--------------------------------|
B|-------0-------0-------0-------0|
G|---0-------0-------0-------0----|x4
D|-----0-------0-------0-------0--|
A|-----------------2-------0------|
D|-2-------4----------------------|

Iron and Wine (singer/songwriter -SUBPOP-)
"Naked as We Came"
CORRECTION TO THE LAST TAB (this makes it much easier)
 
Drop "D" tuning
 
CAPO - 2ND FRET
 
 
[Intro]
 
E|---------------------------------|--------------------------------|
B|-------3--------3-------3-------0|-------0-------0-------0-------0|
G|---0--------0-------0-------0----|---0-------0-------0-------0----|x4
D|-----4--------4-------4-------4--|-----0-------0-------0-------0--|
A|-5----------------0--------------|-----------------2-------0------|
D|---------0----------------0------|-2-------4----------------------|
 
 
[Verse]
 
E|---------------------------------|--------------------------------|
B|-------3--------3-------3-------0|-------0-------0-------0-------0|
G|---0--------0-------0-------0----|---0-------0-------0-------0----|x4
D|-----4--------4-------4-------4--|-----0-------0-------0-------0--|
A|-5----------------0--------------|-----------------2-------0------|
D|---------0----------------0------|-2-------4----------------------|
 
 
[Chorus]
 
E|---------------0-----------------|--------------------------------|
B|-------0---------------0---------|-------0-------0-------0-------0|
G|---2-------2-------2-------2-----|---0-------0-------0-------0----|x4
D|-----2-------2-------2-------2---|-----0-------0-------0-------0--|
A|-0-------0-------0-------0-------|-----------------2-------0------|
D|---------------------------------|-2-------4----------------------|
Tags: guitar tabs, tablature, and ascii, Iron & Wine,