Artist Profile

Safe And Sound Guitar Tab

‣ Taylor Swift
Capo 7
 
[Intro]
E|--------------1p-0----------------------------------|
B|--------------3-----------------------1-------------|
G|--------2-----------2-------------------------------|
D|--0-----------------------------2-----2-------------|
A|--------------------------0-------------------------|
E|----------------------------------------------------|
 
e|----------------------------------------------------|
B|-----------------------------------------------1----|
G|--0h-2--2-----2-----0--------------0----------------|
D|--3-----3-----3-----------0h-2--2-----------2-------|
A|--------------------------3-----------0h-3----------|
E|----------------------------------------------------|
 
e|--------------1p-0----------------------------------|
B|--------------3-----------------------1-------------|
G|--2-----2-----------2-------------------------------|
D|--0-----------------------------2-----2-------------|
A|--------------------------0-------------------------|
E|----------------------------------------------------|
 
e|----------------------------------------------------|
B|--------------1-----------1-------------------------|
G|--2-----2-----------2p-0----------------------------|
D|--3-----3-------------------------------------------|
A|--------------------------3-------------------------|
E|--1-------------------------------------------------|
 
[Verse 1]
e|--1-----------1p-0--------------------0-------------|
B|--3-----------3-----------------------1-------------|
G|-----------2-----------2--------2-----------2-------|
D|--0-----0-----------0-----2-------------------------|
A|--------------------------0-------------------------|
E|----------------------------------------------------|
 
e|----------------------------------------------------|
B|-----------------------------------------------1----|
G|--0h-2--2-----2-----0--------------0--------0-------|
D|--3-----3-----3-----3-----0h-2--2-------------------|
A|--------------------------3-----------0h-3----------|
E|--1-------------------------------------------------|
 
e|--------------1h-0----------------------------------|
B|--------------3-----------------------1-------------|
G|--0-----2-----------2-----------------2-------------|
D|--0-----------------------------2-----------2-------|
A|--------------------------0-------------------------|
E|----------------------------------------------------|
 
e|--------------------------------------0-------------|
B|--------------1-----------1-----------1-------------|
G|--2-----2-----------0h-2----------------------------|
D|--3-----3-----------------------2-------------------|
A|--------------------------3-----------3-------------|
E|----------------------------------------------------|
 
e|--1-----------1p-0--------------------0-------------|
B|--3-----------3-----------------------1-------------|
G|-----------2-----------2--------2-----------2-------|
D|--0-----0-----------0-----2-------------------------|
A|--------------------------0-------------------------|
E|----------------------------------------------------|
 
e|----------------------------------------------------|
B|--------------1--------------------------------1----|
G|--2-----2-----2-----0h-2-----------0----------------|
D|--3-----------------------0h-2--2-----------2-------|
A|--------------------------3-----------0h-3----------|
E|----------------------------------------------------|
 
e|----------------------------------------------------|
B|--------------0-----------1-----------3-------------|
G|--------------0--------0----------------------------|
D|--------0-----------0-----2-----2-----------2-------|
A|----------------------------------------------------|
E|--3-------------------------------------------------|
 
e|--------------------0-----0-------------------------|
B|----------------------------------------------------|
G|--2-----2-----2--------2--2-------------------------|
D|----------------------------------------------------|
A|----------------------------------------------------|
E|----------------------------------------------------|
 
[Chorus]
e|--------------------------------------0-------------|
B|--1-----------1-----------3-----------1-------------|
G|--------------2--------2--2--------------------0----|
D|--3-----3-----------3-----------3-----------0-------|
A|----------------------------------------------------|
E|----------------------------------------------------|
 
e|--3-----------3p-0--------------3p-0----------------|
B|--1-----------1-----------3-----------3-----1-------|
G|-----------------------0--------------0-----0-------|
D|--------2-----------2-------------------------------|
A|--3-------------------------------------------------|
E|--------------------------3-------------------------|
 
e|--------------------------------------0-------------|
B|--------------1-----------3-----------1-------------|
G|--0h-2-----------------2--2--------------------0----|
D|--3-----3-----3-----3-----------3-----------0-------|
A|----------------------------------------------------|
E|----------------------------------------------------|
 
e|--3-----------0-----------------0-------------------|
B|--------------3-----------3--------3--3-----1-------|
G|-----------------------0--------------------0-------|
D|--------2-----------2-----------------2-------------|
A|--3-----------------------3-------------------------|
E|----------------------------------------------------|
 
e|--------------------------------------0-------------|
B|--1-----------1-----------3-----------1-------------|
G|--------------2--------2--2--------------------0----|
D|--3-----3-----------3-----------3-----------0-------|
A|----------------------------------------------------|
E|----------------------------------------------------|
 
e|--3-----------3h-0--------------0-------------------|
B|--1-----------1-----------3--------3--3-----1-------|
G|-----------------------0--------------0-----0-------|
D|--------2-----------2-------------------------------|
A|--3-------------------------------------------------|
E|--------------------------3-------------------------|
 
e|--------------0-----------------------0-------------|
B|--------------1-----------0--------------------0----|
G|--------2-----------2-----------0-------------------|
D|--2-----------------------------------------2-------|
A|--0-------------------------------------------------|
E|--------------------------3-------------------------|
 
e|--------------------0-------------------------------|
B|--------0-----1-----------1-------------------------|
G|--2-----------2--------2----------------------------|
D|--2-----------------------2-------------------------|
A|----------------------------------------------------|
E|----------------------------------------------------|
 
[Verse 2]
e|--0h-1--------1p-0--------------------0-------------|
B|--3-----------3-----------0h-1--------1-------------|
G|-----------2-----------2--2-------------------------|
D|--0-----0-----------0-----------2-----------2-------|
A|--------------------------0-------------------------|
E|----------------------------------------------------|
 
e|----------------------------------------------------|
B|-----------------------------------------------1----|
G|--0h-2--2-----2-----0--------------0--------0-------|
D|--3-----3-----3-----------0h-2--2-------------------|
A|--------------------------3-----------0h-3----------|
E|----------------------------------------------------|
 
e|--------------1p-0--------------------0-------------|
B|--------------3-----------0h-1--------1-------------|
G|--------2-----------2-----2-------------------------|
D|--0-----------------------------2-------------------|
A|--------------------------0-------------------------|
E|----------------------------------------------------|
 
e|--------------0-----------------------0-------------|
B|--1-----------1-----------1-----------1-------------|
G|--2-----------------------0-------------------------|
D|--3-----3-----------3-----------2-----------0-------|
A|-----------------------0--3-------------------------|
E|----------------------------------------------------|
 
e|--0-----1-----------0-------|
B|--3-----3-----1-----1-------|
G|--------------2-------------|
D|--0--0-----0-----2-----2----|
A|--------------0-------------|
E|----------------------------|
 
e|----------------------------------------------------|
B|-----------------------------------------------1----|
G|--0h-2--2-----2-----0--------------0--------0-------|
D|--3-----3-----3-----------0h-2--2-------------------|
A|--------------------------3-----------0h-3----------|
E|----------------------------------------------------|
 
e|--------------1p-0--------------------0-------------|
B|--3-----------3-----------1-----------1-------------|
G|-----------2-----------2--2-------------------------|
D|--0-----0-----------0-----------2-----------2-------|
A|--------------------------0-------------------------|
E|----------------------------------------------------|
 
e|--------------------------------------0-------------|
B|--------------1-----------1-----------1-------------|
G|--2-----2-----------0h-2----------------------------|
D|--3-----3-----------------------2-------------------|
A|--------------------------3-----------3-------------|
E|----------------------------------------------------|
 
e|--0h-1--------1p-0--------------------0-------------|
B|--3-----------3-----------0h-1--------1-------------|
G|-----------2-----------2--2-------------------------|
D|--0-----0-----------0-----------2-----------2-------|
A|--------------------------0-------------------------|
E|----------------------------------------------------|
 
e|----------------------------------------------------|
B|--------------------------------------1-------------|
G|--0h-2--2-----2-----0-----0-----------0-------------|
D|--3-----3-----3-----------------2-----------2-------|
A|--------------------------3-------------------------|
E|----------------------------------------------------|
 
e|--1-----------3-------------|-------|
B|--3-----3-----------3-------|-------|
G|--------2-------------------|-------|
D|--0--0--------0-------------|--3----|
A|----------------------------|-------|
E|----------------------------|-------|
 
e|--------------------0-------------------------------|
B|--------------1-------------------------------------|
G|--------2-------------------------------------------|
D|--3--------------------3L-3-------------------------|
A|----------------------------------------------------|
E|----------------------------------------------------|
 
[Chorus 2]
 
F F C G
 
I recommend playing it like this:
E|--------------------0--0----|--3--3--3--3--3--3--3--3----|
B|--1--1--1--1--3--3--3--3----|--1--1--1--1--0--0--0--0----|
G|--2--2--2--2--2--2--2--2----|--0--0--0--0--0--0--0--0----|
D|--3--3--3--3--3--3--3--3----|--2--2--2--2--0--0--0--0----|
A|----------------------------|--3--3--3--3--2--2--2--2----| (x3)
E|----------------------------|--------------3--3--3--3----|
 
Am         Em/G (3x2000)    F
(Safe......and.............sound)
 
Then, for the "oooooh" part:
F   G   Am   G
You can play these as power chords if you'd like.
 
[Afterwards]
e|--3-----------3-----------------------3-------------|
B|--1-----------1-----------3-------------------------|
G|--------------2--------2--2--------------------0----|
D|--3-----3-----------3-----------3-----------0-------|
A|----------------------------------------------------|
E|----------------------------------------------------|
 
e|--3-----3-------------------|
B|--------1-----3-------------|
G|--------------0-------------|
D|-----2-----2----------------|
A|--3-----------2-------------|
E|----------------------------|
 
e|--3-----------3-----------------------3-------------|
B|--1-----------1-----------3-------------------------|
G|--------------2--------2--2--------------------0----|
D|--3-----3-----------3-----------3-----------0-------|
A|----------------------------------------------------|
E|----------------------------------------------------|
 
e|--3-----------3p-0----------------------------------|
B|--------------1-----------3-------------------------|
G|-----------------------0--0-------------------------|
D|--------2-----------2-------------------------------|
A|--3-----------------------2-------------------------|
E|----------------------------------------------------|
 
[Ending]
 
The final set of "ooohhs"
 
F F C G x 5
 
End with single strums on F, C, and G.
 
 
************************************
 
| h  Hammer-on
| p  Pull-off
 
************************************
Tags: guitar tabs, tablature, ascii, Taylor Swift