Favorite

Sendiri Guitar Tab

Sendiri
By Tohpati
 
Tabbed By Dadan
Standard Tuning
Acoustic Guitar
 
 
e-------------7------4-5-------------4-5----------5--5-4/0----------
B------2---5------5--------7------2--------3-2----5--5-5/2------5---
G--------2-------6--------7------2--------2-----4--x\x--7-6/2----2-----
D----2-----------------0--------------------------7-----------------
A--0----------7---------------4--------2------------------------------
E----------------------------------------------0--------------4-------
 
e--------------------------------------5---------------2--------------
B----2--------------------2------------4---------3--5--3--------------
G--4----4------6/2------4----4------2--4------2--2--2--2--2-----------
D-----------4--------3-----------2-----x--2/4----4--4--4--4-----------
A---------4--------4-----------4-------2------------------0-----------
E-------2--------------------2----------------------------------------
 
e------------------------------------------------0---
B-----3--------3----2--------2----0--------0-----0---
G--1--4----4-----4--2----2-----2--2------2----2--1---
D-----5--5---5------2--2---2------2----2---------2---
A-----0-------------0-------------2--2-----------2---
E---------------------------------0--------------0---
 
e-------------7------4-5-------------4-5----------5--5-4/0----------
B------2---5------5--------7------2--------3-2----5--5-5/2------5---
G--------2-------6--------7------2--------2-----4--x\x--7-6/2----2-----
D----2-----------------0--------------------------7-----------------
A--0----------7---------------4--------2------------------------------
E----------------------------------------------0--------------4-------
 
e--------------------------------------5---------------2--------------
B----2--------------------2------------4---------3--5--3--------------
G--4----4------6/2------4----4------2--4------2--2--2--2---2----1-----
D-----------4--------3-----------2-----x--2/4----4--4--4---2----2-----
A---------4--------4-----------4-------2-------------------2--2-------
E-------2--------------------2-----------------------------0----------
 
e----------------------
B--------------3-0-2---
G--1--2----2-------2---
D-----2--2---2-----2---
A----------------------
E----------------------
 
e----------------------------7---------10--8-7-8--------8--------
B----5-----------------0--5--8--10--8---------------6------8-----
G----5--5--7--5--4-----0-----9------9-------------7---7----9-----
D-------7-----------0--------10-----9----------0-----------9-----
A--0-------------------------------------------------------------
E----------------3-----------------------------------------------
 
e--8-7-8-----------8--10--12---
B------------10-------12-------
G---------------------12-------
D---------10----10-------------
A------------------------------
E------------------------------
 
e----------------------------7--8/10-----10--8--10--12-----------12-------
B----5-----------------0--5--8--------8-------------10-----10-------------
G----5--5--7--5--4-----0-----9--------9-------------10--10----10----------
D-------7-----------0--------10-------9-------------0---------------------
A--0----------------------------------------------------------------------
E----------------3--------------------------------------------------------
 
e----------8--10--12--------------------------
B------8----------------------10--------------
G----9---9--------------10--------------12----
D--------------------10----10--------10-------
A-----------------8---------------10----------
E--0------------------------------------------
 
e--8--10--12--------------------------9--------12-12-----12-------
B--------------------9-----------10-----12--9----------9-----10---
G---------------9----9-----------11------------------9-------11---
D------------11---11---11-----12------------------11---------12---
A---------0----------------0----------------0----------------0----
E-----------------------------------------------------------------
 
I think this verse use two guitar
 
e----0--3--8/10----------------------------------7/8--7/8---------5/7--5/7--
B--1--------------8---12--13/10-------8---6/5-6--5/6--5/6--6-5-3--3/5--3/5--
G---------------9------------10-------9-------------------------------------
D----------------------------------10---------0-----------------------------
A--3----------------------8--8---7------------------------------------------
E----------0---------------------------------------------------3------------
 
e------3/5-------7----------------------------------------
B------------3-------8---8--------3/5---5--3---3/5---5------
G--5-5-----3-----------5----0/2-5-----2------5-----1--------
D-----------------------------------------------------------
A--------3-------------------------0-------------0----------
E--------------------7--------------------------------------
 
e-----------------10-10/12---12-10-----------------
B----10-12-12/13-------------------13-13/14--10----
G--9--------------------------------------------9--
D-----------------------------------------0--------
A--------------0-----------------------------------
E--------------------------------------------------
 
e------------------------------------------
B----6-8-10-------------6-5----------------
G----5-7-7--5---7--4-5------7-5------------
D--7-7-7-7----5-5----5----------5/7-5---5--
A-------------------------------------7----
E------------------------------------------
 
Please send your comment to mahasiswaelektroub@yahoo.com
©2004
TitleType
Jejak Langkah Yang Kau Tinggal
‣ Tohpati
Chords
Kahyangan
‣ Tohpati
Guitar Pro Tab
Untuk Diingat
‣ Tohpati
Guitar Pro Tab
Yang Dinanti
‣ Tohpati
Guitar Pro Tab