Artist Profile

Static Guitar Tab

‣ Steve Lacy
[Verse]
 
   Cause I’m longing                    for
e|------------------------------------------
B|----------12--11----------14--12----------
G|------------------13--11----------15--13--
D|------------------------------------------
A|------------------------------------------
E|------------------------------------------
  something secure
  ----------------------|
  -12--11---------------|
  ----------13--11------|
  ----------------------|
  ----------------------|
  ----------------------|
 
 
[Verse]
   If  you  had to    stunt  your  shin-ing
e|----------------------11-----9----7----6-|
B|-14--12------------12-----11----9----7---|
G|----------15--13-------------------------|
D|-----------------------------------------|
A|-----------------------------------------|
E|-----------------------------------------|
  for your  lov-er    dump   that  f*ck-er
e|----------------------11-----9----7----6-|
B|-14--12------------12-----11----9----7---|
G|----------15--13-------------------------|
D|-----------------------------------------|
A|-----------------------------------------|
E|-----------------------------------------|
 
 
[Outro]
                Shoo-doo-doo-doo-doo
e|----------------------11-----9----7----6-|
B|-14--12------------12-----11----9----7---|
G|----------15--13-------------------------|
D|-----------------------------------------|
A|-----------------------------------------|
E|-----------------------------------------|
  Doo-doo-doo   Shoo-doo-doo-doo-doo
e|----------------------11-----9----7----6-|
B|-14--12------------12-----11----9----7---|
G|----------15--13-------------------------|
D|-----------------------------------------|
A|-----------------------------------------|
E|-----------------------------------------|
  Doo-doo-doo   Shoo-doo-doo-doo-doo
e|----------------------11-----9----7----6-|
B|-14--12------------12-----11----9----7---|
G|----------15--13-------------------------|
D|-----------------------------------------|
A|-----------------------------------------|
E|-----------------------------------------|
  Doo-doo-doo   Shoo-doo-doo-doo-doo
e|----------------------11-----9----7----6-|
B|-14--12------------12-----11----9----7---|
G|----------15--13-------------------------|
D|-----------------------------------------|
A|-----------------------------------------|
E|-----------------------------------------|
  Doo-doo-doo
e|----------------------11-----9----7----6-|
B|-14--12------------12-----11----9----7---|
G|----------15--13-------------------------|
D|-----------------------------------------|
A|-----------------------------------------|
E|-----------------------------------------|
 
e|---------------------11-13--9-11--7-9---6-6|
B|-14--12------------12-----11-----9----7----|
G|----------15--13---------------------------|
D|-------------------------------------------|
A|-------------------------------------------|
E|-------------------------------------------|
 
e|-----------------------------11---9--7--6|
B|-14-14--12-12--------------12---11--9--7-|
G|--------------15-15--13-13---------------|
D|-----------------------------------------|
A|-----------------------------------------|
E|-----------------------------------------|
 
e|-------------------------------
B|-14-14--12-12------------------
G|--------------15-15--13-13-----
D|-------------------------------
A|-------------------------------
E|-------------------------------
 
  ---11-13---9-11--7-9--6-6--|
  --12-----11-----9----7-----|
  ---------------------------|
  ---------------------------|
  ---------------------------|
  ---------------------------|
 
e|----------------------11-----9----7----6-|
B|-14-14---12---------12-----11----9----7--|
G|-------------15--13----------------------|
D|-----------------------------------------|
A|-----------------------------------------|
E|-----------------------------------------|
 
e|-------------------------------
B|-14-14--12-12------------------
G|--------------15-15--13-13-----
D|-------------------------------
A|-------------------------------
E|-------------------------------
 
  ---11-13---9-11--7-9--6-6--|
  --12-----11-----9----7-----|
  ---------------------------|
  ---------------------------|
  ---------------------------|
  ---------------------------|
 
e|-------------------------------
B|-14-14--12-12------------------
G|--------------15-15--13-13-----
D|-------------------------------
A|-------------------------------
E|-------------------------------
 
  ---11-13---9-11--7-9--6-6--|
  --12-----11-----9----7-----|
  ---------------------------|
  ---------------------------|
  ---------------------------|
  ---------------------------|
X
Tags: guitar tabs, tablature, ascii, Steve Lacy