Sunshine of Your Love Guitar Tab

[Riff 1]
e|------------------------------------------------------------------------------|
B|------------------------------------------------------------------------------|
G|------------------------------------------------------------------------------|
D|------12--12---10---12--------------------------------------------------------|
A|------------------------12--11--10------b8------------------------------------|
E|------------------------------------10------10--------------------------------|
 It's getting near dawn.....
 
[Riff 2]
e|------------------------------------------------------------------------------|
B|------------------------------------------------------------------------------|
G|------12--12---10---12--------------------------------------------------------|
D|------------------------12--11--10------b8------------------------------------|
A|------------------------------------10------10--------------------------------|
E|------------------------------------------------------------------------------|
  I'll be with you darling soon....
 
[Chorus]
e|------------------------------------------------------------------------------|
B|------------------------------------------------------------------------------|
G|--------------------5---------------------------------------------------------|
D|--7-7-7-------------5---------5-----------------------------------------------|
A|--7-7-7-------------3---------5-----------------------------------------------|
E|--5-5-5-----------------------3-----------------------------------------------|
        I've been waiting so long.......
 
[Chorus part 2]
e|------------------------------------------------------------------------------|
B|------------------------------------------------------------------------------|
G|-----------------5------------------------------------------------------------|
D|--7-7-7----------5---------5------7-7-7-7-7-7-7-7-----------------------------|
A|--7-7-7----------3---------5------7-7-7-7-7-7-7-7-----------------------------|
E|--5-5-5--------------------3------5-5-5-5-5-5-5-5-----------------------------|
        In this sunshine of your love.
 
[Solo]
e|------------------------------------------------------------------------------|
B|------------------------12----------------------------------------------------|
G|--b12--b12-------12-b12----b12---12--b12----------b9p7--9--7--b9--7-----------|
D|------------------------------------------------------------------------------|
A|------------------------------------------------------------------------------|
E|------------------------------------------------------------------------------|
 
e|------------------------------------------------------------------------------|
B|-------------9----9-----------------------------------------------------------|
G|-------7h9--b9---b9----7h9p7-----------b10---b10---b10------------------------|
D|--7h9-------------------------------------------------------------------------|
A|------------------------------------------------------------------------------|
E|------------------------------------------------------------------------------|
 
e|------------------------------------------------------------------------------|
B|------------------------------------------------------------------------------|
G|--b10----b10----------10--7--b9-----7---------b9------------7h9---b9----------|
D|---------------------------------9--------------------7h9---------------9-----|
A|------------------------------------------------------------------------------|
E|------------------------------------------------------------------------------|
 
e|------------------------------------------------------------------------------|
B|----------------------------------------13------------------------------------|
G|--7hb9---b9--b9--7--9---7h9--7----------14-----12--10--11------10-------------|
D|-----------------------------------------------------------12------12p10---12-|
A|------------------------------------------------------------------------------|
E|------------------------------------------------------------------------------|
 
e|--------------10--------------------------------------------------------------|
B|-------------------------------------------13---------------------------------|
G|--10h11------------b10-------10--b12-----------b12--12--10------12---12/14----|
D|-------------------------12---------------------------------------------------|
A|------------------------------------------------------------------------------|
E|------------------------------------------------------------------------------|
 
e|-------------------------------10---------------------------------------------|
B|--13-------------------10--10-------------------------------------------------|
G|------14/12--10---b12--------------b12--10------b10---------------------------|
D|--------------------------------------------12--------12----------------------|
A|-----------------------------------------------------------12-----------------|
E|------------------------------------------------------------------------------|
 
e|------------------------------------------------------------------------------|
B|---------------------------10--12--------------13------13--13h15--13----------|
G|--------------10----10-----10--12--12/14-----------14-----------------14/12---|
D|--10----10----10h12-10h12-----------------------------------------------------|
A|--10h12-10h12-----------------------------------------------------------------|
E|------------------------------------------------------------------------------|
 
e|----------------------------------------------------13------------------------|
B|-----------------------------13------b15--13--15----13---15p13----------------|
G|--b10----12p10----12/14----------14-----------------------------14/12--b10----|
D|------------------------------------------------------------------------------|
A|------------------------------------------------------------------------------|
E|------------------------------------------------------------------------------|
 
e|------------------------------------------------------------------------------|
B|---------------------------13---13----13--------------------------------------|
G|----------12--10---12/14--------14----14---14/12--b10-------------------------|
D|--12--12------------------------------------------------12p10------10h12------|
A|---------------------------------------------------------------12-------------|
E|------------------------------------------------------------------------------|
 
 
************************
 
| h hammer-on
| p pull-off
| b bend
 
************************
[Riff 1]
e|----------------------------------
B|----------------------------------
G|----------------------------------
D|------12--12---10---12------------
A|------------------------12--11--10
E|----------------------------------
It's getting near dawn.....
------------------------------------
------------------------------------
------------------------------------
------------------------------------
------b8----------------------------
--10------10------------------------
--------|
--------|
--------|
--------|
--------|
--------|

[Riff 2]
e|----------------------------------
B|----------------------------------
G|------12--12---10---12------------
D|------------------------12--11--10
A|----------------------------------
E|----------------------------------
 I'll be with you darling soon....
------------------------------------
------------------------------------
------------------------------------
------b8----------------------------
--10------10------------------------
------------------------------------
--------|
--------|
--------|
--------|
--------|
--------|

[Chorus]
e|----------------------------------
B|----------------------------------
G|--------------------5-------------
D|--7-7-7-------------5---------5---
A|--7-7-7-------------3---------5---
E|--5-5-5-----------------------3---
       I've been waiting so 
------------------------------------
------------------------------------
------------------------------------
------------------------------------
------------------------------------
------------------------------------
long.......
--------|
--------|
--------|
--------|
--------|
--------|

[Chorus part 2]
e|----------------------------------
B|----------------------------------
G|-----------------5----------------
D|--7-7-7----------5---------5------
A|--7-7-7----------3---------5------
E|--5-5-5--------------------3------
       In this sunshine of your 
------------------------------------
------------------------------------
------------------------------------
7-7-7-7-7-7-7-7---------------------
7-7-7-7-7-7-7-7---------------------
5-5-5-5-5-5-5-5---------------------
love.
--------|
--------|
--------|
--------|
--------|
--------|

[Solo]
e|----------------------------------
B|------------------------12--------
G|--b12--b12-------12-b12----b12---1
D|----------------------------------
A|----------------------------------
E|----------------------------------
------------------------------------
------------------------------------
2--b12----------b9p7--9--7--b9--7---
------------------------------------
------------------------------------
------------------------------------
--------|
--------|
--------|
--------|
--------|
--------|

e|----------------------------------
B|-------------9----9---------------
G|-------7h9--b9---b9----7h9p7------
D|--7h9-----------------------------
A|----------------------------------
E|----------------------------------
------------------------------------
------------------------------------
-----b10---b10---b10----------------
------------------------------------
------------------------------------
------------------------------------
--------|
--------|
--------|
--------|
--------|
--------|

e|----------------------------------
B|----------------------------------
G|--b10----b10----------10--7--b9---
D|---------------------------------9
A|----------------------------------
E|----------------------------------
------------------------------------
------------------------------------
--7---------b9------------7h9---b9--
--------------------7h9-------------
------------------------------------
------------------------------------
--------|
--------|
--------|
--9-----|
--------|
--------|

e|----------------------------------
B|----------------------------------
G|--7hb9---b9--b9--7--9---7h9--7----
D|----------------------------------
A|----------------------------------
E|----------------------------------
------------------------------------
------13----------------------------
------14-----12--10--11------10-----
-------------------------12------12p
------------------------------------
------------------------------------
--------|
--------|
--------|
10---12-|
--------|
--------|

e|--------------10------------------
B|----------------------------------
G|--10h11------------b10-------10--b
D|-------------------------12-------
A|----------------------------------
E|----------------------------------
------------------------------------
---------13-------------------------
12-----------b12--12--10------12---1
------------------------------------
------------------------------------
------------------------------------
--------|
--------|
2/14----|
--------|
--------|
--------|

e|-------------------------------10-
B|--13-------------------10--10-----
G|------14/12--10---b12-------------
D|----------------------------------
A|----------------------------------
E|----------------------------------
------------------------------------
------------------------------------
-b12--10------b10-------------------
----------12--------12--------------
-------------------------12---------
------------------------------------
--------|
--------|
--------|
--------|
--------|
--------|

e|----------------------------------
B|---------------------------10--12-
G|--------------10----10-----10--12-
D|--10----10----10h12-10h12---------
A|--10h12-10h12---------------------
E|----------------------------------
------------------------------------
-------------13------13--13h15--13--
-12/14-----------14-----------------
------------------------------------
------------------------------------
------------------------------------
--------|
--------|
14/12---|
--------|
--------|
--------|

e|----------------------------------
B|-----------------------------13---
G|--b10----12p10----12/14----------1
D|----------------------------------
A|----------------------------------
E|----------------------------------
------------------13----------------
---b15--13--15----13---15p13--------
4-----------------------------14/12-
------------------------------------
------------------------------------
------------------------------------
--------|
--------|
-b10----|
--------|
--------|
--------|

e|----------------------------------
B|---------------------------13---13
G|----------12--10---12/14--------14
D|--12--12--------------------------
A|----------------------------------
E|----------------------------------
------------------------------------
----13------------------------------
----14---14/12--b10-----------------
----------------------12p10------10h
-----------------------------12-----
------------------------------------
--------|
--------|
--------|
12------|
--------|
--------|


************************

| h hammer-on
| p pull-off
| b bend

************************
Tags: guitar tab, tablature, Cream
TitleType