Artist Profile

Tetris Theme Guitar Tab

‣ Soundtrack
E|0------------------0---------------0----------|
B|-0-1-3--1-0-----1-----3-1-0--0-1-3---1--------|
G|------------2-2------------------------2-2----|
D|----------------------------------------------|
A|----------------------------------------------| 
E|----------------------------------------------|  
                                                   
E|-----1--5-3-1-0-----0----------------0--------|  
B|--3---------------1---3--1--0-0-1-3----1------| 
G|-----------------------------------------2-2--|
D|----------------------------------------------|
A|----------------------------------------------|
E|----------------------------------------------|

E|0------------------0---------------0----------|
B|-0-1-3--1-0-----1-----3-1-0--0-1-3---1--------|
G|------------2-2------------------------2-2----|
D|----------------------------------------------|
A|----------------------------------------------| 
E|----------------------------------------------|  
                                                   
E|-----1--5-3-1-0-----0----------------0--------|  
B|--3---------------1---3--1--0-0-1-3----1------| 
G|-----------------------------------------2-2--|
D|----------------------------------------------|
A|----------------------------------------------|
E|----------------------------------------------|
 
E|--0------------------0----------0-5--4--------|
B|----1-3-0-1-----0-------1--3-0-1--------------|
G|------------2-1-------------------------------|
D|----------------------------------------------|
A|----------------------------------------------|
E|----------------------------------------------|
Tags: guitar tabs, tablature, ascii, Soundtrack, Korobeiniki