Artist Profile

The Bars Guitar Tab

‣ Black Flag
[Intro]
 
E|-----------------------------------|
B|-----------------------------------|
G|-----------------------------------|
D|---9---7---5---4----9-9--7-7--5-5--|
A|---7---5---3---2----7-7--5-5--3-3--|
E|---0----------------0-0------------|
 
E|----------------------------|
B|----------------------------|
G|----------------------------|
D|-5-/-4---5-/-4--------------|
A|-3-/-2---3-/-2--3-2-1-------|
E|---------------------3-2-1--|
 
 
[Verse 1]
 
E|---------------------|x4
B|---------------------|
G|---------------------|
D|---------------------|
A|----2----2----3-2----|
E|--0----0----------3--|
 
 
[Chorus]
 
E|-------------------------------------------------|
B|-------------------------------------------------|
G|-------------------------------9-9-9--7-7-7--5---|
D|-7-7-7-7-7-7--9-9-9-9-9-9-9-9--9-9-9--7-7-7--5---|
A|-7-7-7-7-7-7--9-9-9-9-9-9-9-9--7-7-7--5-5-5--3---|
E|-5-5-5-5-5-5--7-7-7-7-7-7-7-7--------------------|
 
E|------------------------------------|
B|-7-b--------------------------------|
G|-9-b----------------9--7--5--12--9--|
D|------7-7-7-7-7-7-9-9--7--5--12--9--|
A|------7-7-7-7-7-7-9-7--5--3--10--7--|
E|------5-5-5-5-5-5-7-----------------|
 
[Verse 2]
 
E|-----------------------------------|
B|-----------------------------------|
G|-----------------------------------|
D|---9---7---5---4----9-9--7-7--5-5--|
A|---7---5---3---2----7-7--5-5--3-3--|
E|---0----------------0-0------------|
 
E|----------------------------|
B|----------------------------|
G|----------------------------|
D|-5-/-4---5-/-4--------------|
A|-3-/-2---3-/-2--3-2-1-------|
E|---------------------3-2-1--|
 
E|---------------------|x4
B|---------------------|
G|---------------------|
D|---------------------|
A|----2----2----3-2----|
E|--0----0----------3--|
 
 
[Chorus]
 
E|-------------------------------------------------|
B|-------------------------------------------------|
G|-------------------------------9-9-9--7-7-7--5---|
D|-7-7-7-7-7-7--9-9-9-9-9-9-9-9--9-9-9--7-7-7--5---|
A|-7-7-7-7-7-7--9-9-9-9-9-9-9-9--7-7-7--5-5-5--3---|
E|-5-5-5-5-5-5--7-7-7-7-7-7-7-7--------------------|
 
E|------------------------------------|
B|-7-b--------------------------------|
G|-9-b----------------9--7--5--12--9--|
D|------7-7-7-7-7-7-9-9--7--5--12--9--|
A|------7-7-7-7-7-7-9-7--5--3--10--7--|
E|------5-5-5-5-5-5-7-----------------|
 
 
[Outro]
 
E|----------------------------|
B|----------------------------|
G|----------------------------|
D|-2--5-7-10---2--5-7-10-12---|
A|-2--5-7-10---2--5-7-10-12---|
E|-0--3-5-8----0--3-5-8--10---|
 
************************************
 
| x   Dead note
| b.  Bend
 
***************************
Tags: guitar tabs, tablature, ascii, Black Flag