Artist Profile

Riptide Ukulele Tab

‣ Vance Joy
[Solo]
e|----------3---------|----------3---------|
B|--------------1-----|--------------1-----|
G|--------------------|--------------------|
d|---0h2-2-------2----|---0h2-2-------2----|

e|----------3---------|----------3---------|
B|--------------1-----|--------------1-----|
G|--------------------|--------------------|
d|---0h2-2-------2----|---0h2-2-------2----|
 
     Am    G     C     F
e|---0-----3-----0-----1---|
B|---1-----0-----1-----1---|
G|---2-----0-----0-----2---|
d|---2-----0-----2-----3---|
 
VANCE JOY - RIPTIDE
 
Am           G               C   (2x)
 
Am              G                C
I was scared of dentists and the dark,
Am              G                C
I was scared of pretty girls and starting 

conversations,
   Am     G                   C
Oh all my friends are turning green,
           Am            G              C
You're the magicians assistant in their dreams.
 
Am      G       C
Oooooh, oooooh, oooooh
Am
Oooooh, and they come unstuck
 
[Chorus]
Am    G                   C
Lady, running down to the riptide,
C                 Am
taken away to the dark side,
G               C
I wanna be your left hand man.
  Am       G                        C
I love you when you're singing that song and,
C                  Am
I got a lump in my throat 'cause
G                     C
you're gonna sing the words wrong
 
Am                 G                   C
There's this movie that I think you'll like,
     Am             G                C
this guy decides to quit his job and heads 

to New York City,
     Am       G               C
this cowboy's running from himself.
    Am                G              C
And she's been living on the highest shelf
 
Am      G       C
Oooooh, oooooh, oooooh
Am
Oooooh, and they come unstuck
 
[Chorus]
Am    G                   C
Lady, running down to the riptide,
C                 Am
taken away to the dark side,
G               C
I wanna be your left hand man.
  Am       G                        C
I love you when you're singing that song and,
C                  Am
I got a lump in my throat 'cause
G                     C
you're gonna sing the words wrong
 
[Solo]
e|----------3---------|----------3---------|
B|--------------1-----|--------------1-----|
G|--------------------|--------------------|
d|---0h2-2-------2----|---0h2-2-------2----|

e|----------3---------|----------3---------|
B|--------------1-----|--------------1-----|
G|--------------------|--------------------|
d|---0h2-2-------2----|---0h2-2-------2----|
 
Am                               G
I just wanna, I just wanna know,
C                                      F
If you're gonna, if you're gonna stay,
Am                               G
I just gotta, I just gotta know,
C                                F
I can't have it, I can't have it any other way
 
Am            G                C
I swear she's destined for the screen,
Am               G                 C
Closest thing to Michelle Pfeiffer that 

you've ever seen, oh
 
CHORUS (3x)
Am    G                   C
Lady, running down to the riptide,
C                 Am
taken away to the dark side,
G               C
I wanna be your left hand man.
  Am       G                        C
I love you when you're singing that song and,
C                  Am
I got a lump in my throat 'cause
G                          C
you're gonna sing the words wrong
 
(AFTER 3RD CHORUS)
C                  Am
I got a lump in my throat 'cause
G                     C
you're gonna sing the words wrong.
 
 
************************************
 
| h  Hammer-on
 
************************************

Tags: easy ukulele chords, song lyrics, tablature, tabs, uke, uku, vance joy