Crooked Teeth Chords

[Intro]

   Am       C           G             
e|------s----------------------------0-
B|------s----------------------------1-
G|--2---s--0-0--0----------------0---2-
D|------s---------0h2p0-------0h2----2-
A|--0---s--2-3-------------0h2-------0-
E|------s----------------3-----------x-
   Am        C           G
-s-------s----------------------------0
-s-------s----------------------------1
-s--2b---s--0-0--0-----0----------0---2
-s-------s---------0h2---------0h2----2
-s--0----s--2-3-------------0h2-------0
-s-------s----------------3-----------x
--s--|
--s--|
--s--|
--s--|
--s--|
--s--|


[Verses]
   Am                C         
e|------s---|  e|--------s---|  
B|------s---|  B|--------s---|  
G|--2---s---|  G|--0--0--s---|  
D|------s---|  D|--------s---|  
A|--0---s---|  A|--2--3--s---|  
E|------s---|  E|--------s---|  
   G
e|------s---|
B|------s---|
G|--0---s---|
D|------s---|
A|------s---|
E|--3---s---|


[Verse 1]
Am                 C
If two fill-ups is all it costs
  G                   Am
I guess I'll make the drive
Am            C
Down past the Texas line
     G             Am
make sure he's not alive
Am                  C
Dumped him off of a river bridge
       G        Am
in the fall of '84
Am                   C
Word got 'round that he climbed out
        G               Am
of that muddy Red River floor


[Break]
(Am C G Am)
e|------s----------------------------0--
B|------s----------------------------1--
G|--2---s--0-0--0-----0----------0---2--
D|------s---------0h2---------0h2----2--
A|--0---s--2-3-------------0h2-------0--
E|------s----------------3-----------x--
s--|
s--|
s--|
s--|
s--|
s--|


  Am                  C
Lost my bride to the finest man
    G                   Am
she claims to have ever known
Am             C
She got to the parking lot
    G                  Am
his knees were already blown
Am             C
Love is such a mighty drug
  G             Am
a mightier disease
      Am                  C
Bet he misses her floatin' past the 
barge
         G               Am
with one eye and crooked teeth
    G                Am
One eye and crooked teeth
    G                Am
One eye and crooked teeth
    G                Am
One eye and crooked teeth


[Break]

e|-----------------------------------|
B|-----------------------------------|
G|--2v--0----------------------------|
D|--------2-----2--0-----------------|  
A|-----------3-----------5--3--------|
E|--------------------3--------5v----|
x2


[Chorus]
    Am                C               
Your crooked teeth are floatin' and my 
G              Am
lady's restin' fine
     Am            C               
Seven miles out of Bismarck next to 
G          Am
Bakken Oil lines
 Am                C             G     
I laid her down so softly and so kindly 
   Am
reassured
Am               C         G           
Love it ain't for tamin', a disease that
         Am
can't be cured


[Break]
(Am C G Am)
e|------s----------------------------0--
B|------s----------------------------1--
G|--2---s--0-0--0-----0----------0---2--
D|------s---------0h2---------0h2----2--
A|--0---s--2-3-------------0h2-------0--
E|------s----------------3-----------x--
s--|
s--|
s--|
s--|  x2
s--|
s--|


[Verse 3]
         Am             C
And I'll drive through Colorado
     G                 Am
on a rocky stretch of road
     Am         C
with no one who loves me
          G               Am
as far as telephone poles go
  Am           C
I wish I was a trustin' man
      G               Am
but a trustin' man is weak
    Am               C
The only thing worth trustin' is
     G                     Am
some brass through crooked teeth
     G                     Am
some brass through crooked teeth
     G                     Am
some brass through crooked teeth


[Break]

e|-----------------------------------|
B|-----------------------------------|
G|--2v--0----------------------------|
D|--------2-----2--0-----------------|  
A|-----------3-----------5--3--------|
E|--------------------3--------5v----|
x2


[Chorus]
    Am                C               
Your crooked teeth are floatin' and my 
G            Am
lady's restin' fine
     Am            C               
Seven miles out of Bismarck next to 
G          Am
Bakken Oil lines
 Am                C             G     
I laid her down so softly and so kindly 
   Am
reassured
Am               C         G           
Love it ain't for tamin', a disease that
         Am
can't be cured


[Solo]
(Am C G Am) (x4)

e|--------------------------------
B|--------------------------------
G|-----5-5/7-5-7b-5-5h7------9\7- 
D|-5/7----------------------------
A|--------------------------------
E|--------------------------------
----------------------------------
----------------------------------
5-5h7-5-----------5---------------
--------7---5-5h7-----------------
----------------------------------
----------------------------------
---------|
---------|
---------|
---------|
---------|
---------|

e|------------8-10b-8-8h10-8-----12-10-8
B|-----8-8h10---------------------------
G|-7/9----------------------------------
D|--------------------------------------
A|--------------------------------------
E|--------------------------------------
-------------------------------------|
-10----------------------------------|
-----------5-5h7p5-5-----------------|
-------5h7---------------------------|
-------------------------------------|
-------------------------------------|


[Verse 2]
Am                   C
Lost my bride to the finest man
    G                   Am
she claims to have ever known
Am             C
She got to the parking lot
    G                  Am
his knees were already blown
Am             C
Love is such a mighty drug
  G             Am
a mightier disease
      Am                  C
Bet he misses her floatin' past the 
barge
         G               Am
with one eye and crooked teeth


************************************

| h  Hammer-on
| p  Pull-off
| x  Dead note
| b  Bend
| /  Slide up
| \  Slide down

************************************
Tags: easy guitar chords, song lyrics, Zach Bryan
TitleType
Revival
‣ Zach Bryan
Chords
Billy Stay
‣ Zach Bryan
Chords
You Are My Sunshine
‣ Zach Bryan
Chords
Oklahoma City
‣ Zach Bryan
Chords
The Outskirts
‣ Zach Bryan
Chords