Artist Profile

Der Letzte Tanz Chords

‣ Bosse
[Intro] Trompete
 
e|-----------------|-----------------|-----------------|------------------|
B|-----------------|---------1-------|-----------------|----------1-------|
G|-------2-0-2-0-2-|-------2---2-0-2-|-0-------0---2---|------------2-0---|
D|-0---------------|-0---------------|-----------------|0---------------0-|
A|-----------------|-----------------|-----------------|------------------|
E|-----------------|-----------------|-----------------|------------------|
 
 
 
[Vers]
 
Dm                   Dm
Jahre zieh'n vorbei, Kindheit geht vorbei
C                    Bb          Am    C
Freunde werden alt, zwei Promille Abendball
Dm                     Dm
Longdrinks gehen leer, Kopf wird voller
C                    Bb      Am    C
Alte Liebe wird schwer, yeah, yeah
 
 
[Pre-Refrain]
Dm                                     Dm
Und man weiß immer erst beim Abschied, was es ei'm bedeutet
        C                         Bb    Am    C
Und wie schöööön es eigentlich war        und nix ist
 
Bb
e|-----1---------1-|----1----------1-|-----------------|
B|-----------------|-----------------|-----------------|
G|-3------3---3----|-3-----3---3-----|-----------------|
D|-----------------|-----------------|-----------------|
A|-----------------|-----------------|-----------------|
E|-----------------|-----------------|-----------------|
 immer,            für immer,         Für immer
 
 
 
[Refrain]
 
2x Intro begleitend zu den ersten 4 Strophen des Refrains
 
     Dm                         Dm
Also tanz, als wär's der letzte Tanz
                     C      Bb Am C
Als wär's der letzte Tanz, uuh
     Dm                         Dm
Also küss, als wär's der letzte Kuss
                     C      Bb Am C
Als wär's der letzte Kuss, uuh
            Bb                 Bb
Nix ist für immer, nix ist für immer
        Am                  Am
Einfach alles ist nur einmal
     Dm           C                  Bb
Also ta-a-a-a-a-a-anz, als wär's der letzte
    Am                 Intro...
Der letzte, der letzte Tanz
 
 
[Solo]
e|-----------------|-----------------|-----------------|------------------|
B|-----------------|---------1-------|-----------------|----------1-------|
G|-------2-0-2-0-2-|-------2---2-0-2-|-0-------0---2---|------------2-0---|
D|-0---------------|-0---------------|-----------------|0---------------0-|
A|-----------------|-----------------|-----------------|------------------|
E|-----------------|-----------------|-----------------|------------------|
 
 
[Vers]
Dm                          Dm
David Bowie, Amy Winehouse (auch das Beste geht vorbei)
C                         Bb             Am           C
Du und ich, wie im Traum (ich will, dass es ewig bleibt)
Dm                      Dm
Erst... dann der Kater (alles hat seine Zeit)
C                          Bb             Am      C
Ferienende, Koffer packen (dabei denken: "Oh nein")
 
Dm                          Dm
Nichts ist für immer, alles Einwegmomente
         C                        Bb   Am    C
Du weißt nie, was morgen ko-o-ommt     und nix ist
 
Bb
e|-----1---------1-|----1----------1-|-----------------|
B|-----------------|-----------------|-----------------|
G|-3------3---3----|-3-----3---3-----|-----------------|
D|-----------------|-----------------|-----------------|
A|-----------------|-----------------|-----------------|
E|-----------------|-----------------|-----------------|
 immer,            für immer,         Für immer
 
 
 
[Refrain]
 
     Dm                         Dm
Also tanz, als wär's der letzte Tanz
                     C      Bb Am C
Als wär's der letzte Tanz, uuh
     Dm                         Dm
Also küss, als wär's der letzte Kuss
                     C      Bb Am C
Als wär's der letzte Kuss, uuh
            Bb                 Bb
Nix ist für immer, nix ist für immer
        Am                  Am
Einfach alles ist nur einmal
     Dm           C                  Bb
Also ta-a-a-a-a-a-anz, als wär's der letzte
    Am                 Dm (Übergang in Bridge)
Der letzte, der letzte Tanz
 
 
 
[Bridge]  2x  (Nur Basstöne)
 
Dm                  C                      Bb
    Warum merkt man immer erst beim Abschi-ied
Am                 Dm
Was es uns bedeute-et?
 
                    C                     Bb
    Warum merkt man immer erst beim Winke-en
Am                Dm
Wie schööön es wa-ar?
 
 
 
[Refrain]
 
     Dm                         Dm
Also tanz, als wär's der letzte Tanz
                     C      Bb Am C
Als wär's der letzte Tanz, uuh
     Dm                         Dm
Also küss, als wär's der letzte Kuss
                     C      Bb Am C
Als wär's der letzte Kuss, uuh
            Bb                 Bb
Nix ist für immer, nix ist für immer
        Am                  Am
Einfach alles ist nur einmal
     Dm           C                  Bb
Also ta-a-a-a-a-a-anz, als wär's der letzte
    Am                  Dm
Der letzte, der letzte Tanz
X


Tags: easy guitar chords, song lyrics, Bosse