Crazy Train Bass Tab

Tabbed by: DarrellF
 
Tuning: Standard
(Lyrics at end)
 
 
Intro:
======
(3x)
G|------------------------------------||
D|------------------------------------||
A|---------------------------5-5------||
E|-2-2----5-5--0-0----2-2---------0-0-||
 
(1x)
G|---------------------------------------------|
D|---------------------------------------------|
A|---------------------------55555555----------|
E|-2-2----5-5--0-0----2-2-------------00000000-|
 
Verse (10x):
============
G|---------------|-------------------||
D|---------------|---7---6-7-4-------||
A|-0---0---0---0-|-0---0-------7-(5)-||
E|---------------|-------------------||
 
NOTE:
Sometimes, he doubles up on the octave A
in the second bar of the above verse stanza, like this:
G|-----------------|
D|---77--6-7-4-----|
A|-0---0-------7-5-|
E|-----------------|
It's very subtle, but it's a nice changeup depending on where the vocals
and/or guitar is at the time. :)
Noticed mostly in the last two verses, but he may sneak one in the first one.
 
Chorus:
=======
(2x)
G|-----------------------||
D|-----------------------||
A|------------5-----0----||
E|-2-0-2--2-4----024-420-||
 
(1x)
G|-------------------|-------------------|--------------------|
D|-------------------|----4-4-4-4-4-4-4--|--------------------|
A|-0-0-0----------5\-|-------------------|-0-0-0--------------|
E|------42-0-00050---|-2-2-2-2-2-2-2-2-2-|------42-0-00050-5\-|
 
G|--------------------------|------------------------|
D|--------------------------|------------------------|
A|--------------------------|-------------5-55-------|
E|-2-0-2--2-4-5~-4-2-0--2-4-|-2-0-2--2-4-------0-000-|
 
Verse (10x):
============
G|---------------|-------------------||
D|---------------|---7---6-7-4-------||
A|-0---0---0---0-|-0---0-------7-(5)-||
E|---------------|-------------------||
 
Chorus:
=======
(2x)
G|-----------------------||
D|-----------------------||
A|------------5-----0----||
E|-2-0-2--2-4----024-420-||
 
(1x)
G|-------------------|-------------------|--------------------|
D|-------------------|----4-4-4-4-4-4-4--|--------------------|
A|-0-0-0----------5\-|-------------------|-0-0-0--------------|
E|------42-0-00050---|-2-2-2-2-2-2-2-2-2-|------42-0-00050-5\-|
 
G|--------------------------|------------------------|
D|--------------------------|------------------------|
A|--------------------------|-------------5-55-------|
E|-2-0-2--2-4-5~-4-2-0--2-4-|-2-0-2--2-4-------0-000-|
 
Bridge 1:
=======
G|----------------------------------------------|
D|----------------------------------------------|
A|---------------------------------5-5\---x0----|
E|-2-2\---05-5\--x20-0--x02-2\---x0---------0-0-|
 
G|-------------------------------------------------|
D|-------------------------------------------------|
A|--------------------------------55555555---------|
E|-x02-2\---05-5\--x20-0--x02-2-----------00000000-|
 
Guitar Lead:
============
Note: Here I break up the groups of 16th notes by beat for ease of reading, so
you won't have to go blind... ;)
Also note that all four sections of this are slightly different from each other...
 
G|----------------------|---------------------|----------------|--------------------|
D|-/4444-4444-4444-2222-|-0000-0000-0000------|----------------|--------------------|
A|----------------------|----------------4444-|-2222-2222--0---|--------------------|
E|----------------------|---------------------|--------------4-|-2-22-2-22-2-22-2-2-|
 
G|--------------------|--------------------|----------------|-----------------|
D|-4-44-4-4-4444-2222-|-0-00-0-0-0000------|----------------|-----------------|
A|--------------------|---------------4444-|-2-22-2-22--0---|---------0---0-2-|
E|--------------------|--------------------|--------------4-|-2-0-2-4---4-----|
 
G|--------------------|--------------------|----------------|------------------|
D|-4-44-4-4-4444-2222-|-0-00-0-0-0000------|----------------|------------------|
A|--------------------|---------------4444-|-2-22-2222--0---|------------------|
E|--------------------|--------------------|--------------4-|-2-22-2-2-2-0-2-0-|
 
G|---------------------|---------------------|----------------|----------------|
D|-4-44-4444-4444-2222-|-0-00-0000-0000------|----------------|----------------|
A|---------------------|----------------4444-|-2-22-2222--0---|----------------|
E|---------------------|---------------------|--------------4-|-0-0-0-0-0-0-5\-|
 
Bridge 2:
=========
G|------------------------------------|
D|------------------------------------|
A|---------------------------5-5------|
E|-2-2----5-5--0-0----2-2---------0-0-|
 
G|---------------------------------------------|
D|---------------------------------------------|
A|---------------------------55555555----------|
E|-2-2----5-5--0-0----2-2-------------00000000-|
 
Verse (10x):
============
G|---------------|-------------------||
D|---------------|---7---6-7-4-------||
A|-0---0---0---0-|-0---0-------7-(5)-||
E|---------------|-------------------||
 
Chorus:
=======
(2x)
G|-----------------------||
D|-----------------------||
A|------------5-----0----||
E|-2-0-2--2-4----024-420-||
 
(1x)
G|-------------------|-------------------|--------------------|
D|-------------------|----4-4-4-4-4-4-4--|--------------------|
A|-0-0-0----------5\-|-------------------|-0-0-0--------------|
E|------42-0-00050---|-2-2-2-2-2-2-2-2-2-|------42-0-00050-5\-|
 
G|--------------------------|------------------------|
D|--------------------------|------------------------|
A|--------------------------|-------------5-55-------|
E|-2-0-2--2-4-5~-4-2-0--2-4-|-2-0-2--2-4-------0-000-|
 
Repeat Bridge 1 until fadeout
=======
G|----------------------------------------------|
D|----------------------------------------------|
A|---------------------------------5-5\---x0----|
E|-2-2\---05-5\--x20-0--x02-2\---x0---------0-0-|
 
G|-------------------------------------------------|
D|-------------------------------------------------|
A|--------------------------------55555555---------|
E|-x02-2\---05-5\--x20-0--x02-2-----------00000000-|
 
 
 
 
| /  slide up
| \  slide down
| ~  vibrato
| x  Mute note
===============================================================================
 
 
All aboard! Ha ha ha ha ha ha haaaa!
 
Ay, Ay, Ay, Ay, Ay, Ay, Ay
 
Crazy, but that's how it goes
Millions of people living as foes
Maybe it's not too late
To learn how to love
And forget how to hate
 
Mental wounds not healing
Life's a bitter shame
I'm going off the rails on a crazy train
I'm going off the rails on a crazy train
 
Let's Go!
 
I've listened to preachers
I've listened to fools
I've watched all the dropouts
Who make their own rules
One person conditioned to rule and control
The media sells it and you live the role
 
Mental wounds still screaming
Driving me insane
I'm going off the rails on a crazy train
I'm going off the rails on a crazy train
 
I know that things are going wrong for me
You gotta listen to my words
Yeah
 
Heirs of a cold war
That's what we've become
Inheriting troubles I'm mentally numb
Crazy, I just cannot bear
I'm living with something' that just isn't fair
 
Mental wounds not healing
Who and what's to blame
I'm going off the rails on a crazy train
I'm going off the rails on a crazy train
Tags: bass, tab, tablature
TitleType
Crazy Train
‣ Ozzy Osbourne
Guitar Pro Tab