Artist Profile

Adam’s Song Guitar Tab

‣ Blink-182
[Intro]
 
  clean
D|--------------------------------|
A|--------------------------------|
F|--------------------------------|
C|---4-0-----4-0-----4-0-----4-0--|
G|-2-------2-------0-------0------|
D|--------------------------------|
                                       x2
D|--------------------------------|
A|--------------------------------|
F|--------------------------------|
C|---4-0-----4-0-----4-0-----4-0--|
G|--------------------------------|
D|-3-------3-------0-------3------|
 
 
[Verse 1]
 
  distortion/palm mute
D|--------------------------------------|
A|--------------------------------------|
F|--------------------------------------|
C|-77777777----------44444444-----------|  x4
G|-55555555-55555555-22222222-55555555--|
D|----------33333333----------33333333--|
 
 
[Bridge]
 
  clean
D|------------------------------------------------|
A|------------------------------------------------|
F|-----0------0--------0-------0------------------|
C|---7------7--------9-------9-------4-0-----4-0--|
G|-5-------5------/7-------7-------2-------2------|
D|------------------------------------------------| 
                                                       x2
D|----------------|
A|----------------|
F|----------------|
C|---4-0-----4-0--|
G|----------------|
D|-3-------3------|
 
 
[Pre-Chorus]
 
  clean
D|-------------------------------------|
A|-------------------------------------|
F|-------------------------------------|  x2
C|-77777777-99999999-44444444----------|
G|-55555555-77777777-22222222-55555555-|
D|----------------------------33333333-|
 
 
[Chorus]
 
  distortion/palm mute
D|--------------------------------------|
A|--------------------------------------|
F|-77777777-99999999-44444444-----------|
C|-77777777-99999999-44444444-55555555--|  x2
G|-55555555-77777777-22222222-55555555--|
D|----------------------------33333333--|
 
 
[Instrumental]
 
  clean
D|--------------------------------|
A|--------------------------------|
F|--------------------------------|
C|---4-0-----4-0-----4-0-----4-0--|
G|-2-------2-------0-------0------|
D|--------------------------------|
                                       x2
D|--------------------------------|
A|--------------------------------|
F|--------------------------------|
C|---4-0-----4-0-----4-0-----4-0--|
G|--------------------------------|
D|-3-------3-------0-------3------|
 
 
[Verse 2]
 
  distortion/palm mute
D|--------------------------------------|
A|--------------------------------------|
F|--------------------------------------|
C|-77777777----------44444444-----------|  x4
G|-55555555-55555555-22222222-55555555--|
D|----------33333333----------33333333--| 
 
 
[Bridge]
 
  clean
D|------------------------------------------------|
A|------------------------------------------------|
F|-----0------0--------0-------0------------------|
C|---7------7--------9-------9-------4-0-----4-0--|
G|-5-------5------/7-------7-------2-------2------|
D|------------------------------------------------|
                                                       x2
D|----------------|
A|----------------|
F|----------------|
C|---2-0-----2-0--|
G|----------------|
D|-3-------3------|
 
 
[Pre-Chorus]
 
  clean
D|-------------------------------------|
A|-------------------------------------|
F|-------------------------------------|  x2
C|-77777777-99999999-44444444----------|
G|-55555555-77777777-22222222-55555555-|
D|----------------------------33333333-|
 
 
[Chorus]
 
  distortion/palm mute
D|--------------------------------------|
A|--------------------------------------|
F|-77777777-99999999-44444444-----------|
C|-77777777-99999999-44444444-55555555--|  x2
G|-55555555-77777777-22222222-55555555--|
D|----------------------------33333333--|
 
 
[Interlude]
 
  pt.1-clean
D|-----------------------|
A|-----------------------|
F|-----0--0---0---0---0--|
C|---7-------------------|
G|-5-----5---5---5---5---|
D|-----------------------|
 
  pt.2
D|--------|
A|--------|
F|-----7--|
C|---7----|
G|-5------|
D|--------| repeat until chorus
 
 
[Chorus]
 
  distortion/palm mute
D|--------------------------------------|
A|--------------------------------------|
F|-77777777-99999999-44444444-----------|  x4
C|-77777777-99999999-44444444-55555555--|
G|-55555555-77777777-22222222-55555555--|
D|----------------------------33333333--|
 
 
[End]
 
D|----|
A|----|
F|-7--|
C|-7--|
G|-5--|
D|----|
 
 
************************************
 
| x  Dead note
| /  Slide up
 
************************************
Tags: guitar tabs, tablature, ascii, Adams Song, Blink-182