Artist Profile

Bloom Guitar Tab

‣ The Paper Kites
Capo on 6
 
 
E|--------------------------------------------------|
B|--1-------------1-------------------1-------------|
G|---------0------------0----------------------0----|
D|------2------------2------------2----------0------|
A|--0----------0------------0*------------0h2-------|
E|--------------------------------------------------|
 
*There is a slight pause before you play the next note
 
E|--------------------------------------------------|
B|-----------1-----------1----------1---------------|
G|-----------------0-------------0--------0---------|
D|--------0-----------0------0h2-------2----0-------|
A|--2h3--------3------------------------------------|
E|--------------------------------------------------|
 
E|-----------------------------------------------|
B|--3-----------3--------1------------1--------0-|
G|--------0----------0-----------0---------0-----|
D|-----0----------0-----------0---------0--------|
A|-----------------------------------------------|
E|--3-------3------------3---------3-----------3-|

E|-----------------------------------------|
B|----------0---------0-----------0--------|
G|----0-----------0---------0-----------0--|
D|-0-----------0---------0-----------0-----|
A|-----------------------------------------|
E|-------3------------3--------3-----------|
 
Play past the stars on every other play through.
First play through is the full score.
 
******************************
| /  Slide Up
| \  Slide Down
| h  Hammer On
| p  Pull Off
| b  Bend
| r  Release
| v  Vibrato
******************************


Tags: guitar tabs, tablature, ascii, The Paper Kites