Artist Profile

Thunderstruck Guitar Tab

‣ AC/DC
Gitagram Tab Viewer Loading
0%
-
00:00 / 00:00
Zoom

Download Guitar Pro Tablature



Download Tab Buy Me a Coffee

For a better experience, you can play this tab in the Guitar Pro application which is supported by RSE technology which allows for a more realistic guitar sound.
You can download the Guitar Pro Tablature for this song (Thunderstruck), and then open it in the Guitar Pro app. This software is available for Windows, Mac, Android and iOS platforms.
Guitar Pro is commercial software with interesting features, if you don't have this application, you can also use the TuxGuitar application which can also open Guitar Pro files, but with less features than Guitar Pro.

Disclaimer: Gitagram is not affiliated with Guitar Pro or Tux Guitar. This tablature is for educational purposes only, and we do not guarantee the accuracy of the tablature. It's not created by the original composer of the song, but by users like you who upload it to our service.
[Intro / Riff 1]
 
(Guitar 1)
 
e|---|---------------------------------|---------------------------------|
B|-0-|-4-0-7-0-4-0-7-0-4-0-7-0-4-0-7-0-|-4-0-7-0-4-0-7-0-4-0-7-0-4-0-7-0-|
G|---|---------------------------------|---------------------------------|
D|---|---------------------------------|---------------------------------|
A|---|---------------------------------|---------------------------------|
E|---|---------------------------------|---------------------------------|
 
e|---------------------------------|---------------------------------|
B|-5-0-8-0-5-0-8-0-5-0-8-0-5-0-8-0-|-5-0-8-0-5-0-8-0-5-0-8-0-5-0-8-0-|
G|---------------------------------|---------------------------------|
D|---------------------------------|---------------------------------|
A|---------------------------------|---------------------------------|
E|---------------------------------|---------------------------------|
 
e|---------------------------------|---------------------------------|
B|-4-0-7-0-4-0-7-0-4-0-7-0-4-0-7-0-|-4-0-7-0-4-0-7-0-4-0-7-0-4-0-7-0-|
G|---------------------------------|---------------------------------|
D|---------------------------------|---------------------------------|
A|---------------------------------|---------------------------------|
E|---------------------------------|---------------------------------|
 
e|---------------------------------|---------------------------------|
B|-5-0-8-0-5-0-8-0-5-0-8-0-5-0-8-0-|-5-0-8-0-5-0-8-0-5-0-8-0-5-0-8-0-|
G|---------------------------------|---------------------------------|
D|---------------------------------|---------------------------------|
A|---------------------------------|---------------------------------|
E|---------------------------------|---------------------------------|
 
 
[Riff 2]
 
e|------------------------------------|---------------------------------|
B|-12-0-10-0-9-0-10-0-9-0-7-0-9-0-5-0-|-7-0-4-0-5-0-4-0-5-0-4-0-5-0-4-0-|
G|------------------------------------|---------------------------------| x10
D|------------------------------------|---------------------------------|
A|------------------------------------|---------------------------------|
E|------------------------------------|---------------------------------|
 
 
(2nd guitar starts)
 
e|------------------------------------|---------------------------------|
B|-12-0-10-0-9-0-10-0-9-0-7-0-9-0-5-0-|-7-0-4-0-5-0-4-0-5-0-4-0-5-0-4-0-|
G|------------------------------------|---------------------------------| x4
D|------------------------------------|---------------------------------|
A|------------------------------------|---------------------------------|
E|------------------------------------|---------------------------------|
 
(Guitar 2)
e|-------------------------------|-------------------------------|
B|-------------------------------|-------------------------------|
G|---4-----4-----4---4-----4-----|---4-----4-----4---4-----4-----| x4
D|---4-----4-----4---4-----4-----|---4-----4-----4---4-----4-----|
A|-2---2-------2-------2-------2-|-2---2-------2-------2-------2-|
E|-------------------------------|-------------------------------|
   {.............................pm.............................}
 
 
[Verse 1]
 
(Guitar 1)
 
e|------------------------------------|---------------------------------|
B|-12-0-10-0-9-0-10-0-9-0-7-0-9-0-5-0-|-7-0-4-0-5-0-4-0-5-0-4-0-5-0-4-0-|
G|------------------------------------|---------------------------------| x8
D|------------------------------------|---------------------------------|
A|------------------------------------|---------------------------------|
E|------------------------------------|---------------------------------|
 
(Guitar 2)
e|-------------------------------|-------------------------------|
B|-------------------------------|-------------------------------|
G|---4-----4-----4---4-----4-----|---4-----4-----4---4-----4-----| x8
D|---4-----4-----4---4-----4-----|---4-----4-----4---4-----4-----|
A|-2---2-------2-------2-------2-|-2---2-------2-------2-------2-|
E|-------------------------------|-------------------------------|
   {.............................pm.............................}
 
 
[Pre-Chorus]
 
(Guitar 1)
 
e|------------------------------------|---------------------------------|
B|-12-0-10-0-9-0-10-0-9-0-7-0-9-0-5-0-|-7-0-4-0-5-0-4-0-5-0-4-0-5-0-4-0-|
G|------------------------------------|---------------------------------| x4
D|------------------------------------|---------------------------------|
A|------------------------------------|---------------------------------|
E|------------------------------------|---------------------------------|
 
(Guitar 2)
                                .   .
e|-------------------------|------------------------|
B|------------------r------|------------------------|
G|-4-----------2----e------|----2---2---------------| x4
D|-4-----------2--2-s------|----2---2---2-----------|
A|-2-----------0--2-t------|----0---0---2-----------|
E|----------------0--------|------------0-----------|
 
 
[Fill]
 
(Guitar 1)
 
e|------------------------------------|---------------------------------|
B|-12-0-10-0-9-0-10-0-9-0-7-0-9-0-5-0-|-7-0-4-0-5-0-4-0-5-0-4-0-5-0-4-0-|
G|------------------------------------|---------------------------------|
D|------------------------------------|---------------------------------|
A|------------------------------------|---------------------------------|
E|------------------------------------|---------------------------------|
 
(Guitar 2)
e|-------------------------------|-------------------------------|
B|-------------------------------|-------------------------------|
G|---4-----4-----4---4-----4-----|---4-----4-----4---4-----4-----|
D|---4-----4-----4---4-----4-----|---4-----4-----4---4-----4-----|
A|-2---2-------2-------2-------2-|-2---2-------2-------2-------2-|
E|-------------------------------|-------------------------------|
   {.............................pm.............................}
 
 
[Instrumental]
 
(Guitar 1)
 
e|------------------------------------|---------------------------------|
B|-12-0-10-0-9-0-10-0-9-0-7-0-9-0-5-0-|-7-0-4-0-5-0-4-0-5-0-4-0-5-0-4-0-|
G|------------------------------------|---------------------------------| x2
D|------------------------------------|---------------------------------|
A|------------------------------------|---------------------------------|
E|------------------------------------|---------------------------------|
 
(Guitar 2)
e|-------------------------------|-------------------------------|
B|-------------------------------|-------------------------------|
G|---4-----4-----4---4-----4-----|---4-----4-----4---4-----4-----| x2
D|---4-----4-----4---4-----4-----|---4-----4-----4---4-----4-----|
A|-2---2-------2-------2-------2-|-2---2-------2-------2-------2-|
E|-------------------------------|-------------------------------|
   {.............................pm.............................}
 
 
[Verse 2]
 
(Guitar 1)
 
e|------------------------------------|---------------------------------|
B|-12-0-10-0-9-0-10-0-9-0-7-0-9-0-5-0-|-7-0-4-0-5-0-4-0-5-0-4-0-5-0-4-0-|
G|------------------------------------|---------------------------------| x8
D|------------------------------------|---------------------------------|
A|------------------------------------|---------------------------------|
E|------------------------------------|---------------------------------|
 
(Guitar 2)
e|-------------------------------|-------------------------------|
B|-------------------------------|-------------------------------|
G|---4-----4-----4---4-----4-----|---4-----4-----4---4-----4-----| x8
D|---4-----4-----4---4-----4-----|---4-----4-----4---4-----4-----|
A|-2---2-------2-------2-------2-|-2---2-------2-------2-------2-|
E|-------------------------------|-------------------------------|
   {.............................pm.............................}
 
 
[Bridge]
 
e|---------------------|---------------------|
B|--------------r------|-r-------------------|
G|-4----2-------e------|-e--------------2----|
D|-4----2----2--s------|-s--------------2----| x3
A|-2----0----2--t------|-t--------------0----|
E|-----------0---------|---------------------|
 
e|---------------------|---------------------|
B|--------------r------|-r-------------------|
G|-4----2-------e------|-e-------------------|
D|-4----2----2--s------|-s-------------------|
A|-2----0----2--t------|-t-------------------|
E|-----------0---------|---------------------|
 
 
[Chorus]
 
e|---------------------|---------------------|
B|---------------------|---------------------|
G|-4-------2-----------|-2-------------------|
D|-4-------2-------0h2-|-2-------2-----------| x4
A|-2-------0-------0h2-|-0-------2-----------|
E|-----------------0---|---------0-----------|
 
 
[Instrumental]
 
(Guitar 1)
 
e|------------------------------------|---------------------------------|
B|-12-0-10-0-9-0-10-0-9-0-7-0-9-0-5-0-|-7-0-4-0-5-0-4-0-5-0-4-0-5-0-4-0-|
G|------------------------------------|---------------------------------| x2
D|------------------------------------|---------------------------------|
A|------------------------------------|---------------------------------|
E|------------------------------------|---------------------------------|
 
(Guitar 2)
 
e|---------------------|---------------------|
B|---------------------|---------------------|
G|-4-------------------|(4)------------------|
D|-4-------------------|(4)------------------| x2
A|-2-------------------|(2)------------------|
E|---------------------|---------------------|
 
 
[Interlude]
 
(Guitar 1)
 
e|------------------------------------|---------------------------------|
B|-12-0-10-0-9-0-10-0-9-0-7-0-9-0-5-0-|-7-0-4-0-5-0-4-0-5-0-4-0-5-0-4-0-|
G|------------------------------------|---------------------------------| x2
D|------------------------------------|---------------------------------|
A|------------------------------------|---------------------------------|
E|------------------------------------|---------------------------------|
 
(Guitar 2)
 
e|---------------------|---------------------|
B|---------------------|---------------------|
G|---------4-----------|(4)------------------|
D|-4--2----4-----------|(4)------------------| x2
A|---------2-----------|(2)------------------|
E|---------------------|---------------------|
 
 
[Solo]
 
e|-------------------|------------------------|--------------------------|
B|-------------------|-9--9-------------------|-10---------9-------------|
G|-------------------|-9--9-------------------|-9----------9-----9b11----|
D|-------------x\----|-9--9------9------------|-11---------9-------------|
A|-------------x\----|------------------------|--------------------------|
E|-------------------|------------------------|--------------------------|
 
e|-------------------|------------------------|--------------------------|
B|-------------------|------------------------|--------------------------|
G|-------------------|------------------------|--------------------------|
D|-------------------|-----------4----------2-|-2------------------------|
A|---------------x/--|-2---------2----------0-|-0----------2-------------|
E|---------------x/--|-0----------------0-2---|------------0-------------|
 
e|-7-------------------------------|-------------------------------------|
B|---10-7---7----------------------|-------------------------------------|
G|--------9---7--------------------|-------------------------------------|
D|--------------9--------\------7--|-7--------------9-----------9b11-----|
A|-------------------------/9------|-------------------------------------|
E|---------------------------------|-------------------------------------|
 
e|---------------------------------------|------------------------------17b19-|
B|---------------------------------------|------------------------------------|
G|------7-9---11p9p7--11p9p7----11p9p7---|-7b9-r7-----------------------------|
D|----9----------------------9---------9-|----------------9-------------------|
A|---------------------------------------|------------------------------------|
E|---------------------------------------|-----------------------0--0---------|
 
e|------17-14---------------------17-14------------|
B|-----------17b19----17-15-17b19------17-18-17-15-|
G|-------------------------------------------------|
D|-------------------------------------------------|
A|-------------------------------------------------|
E|-------------------------------------------------|
 
e|------------------------------------------|
B|----15b17-15b17-15b17----------------\----|
G|-16-----------------------------------\---|
D|------------------------------------------|
A|------------------------------------------|
E|------------------------------------------|
 
e|------------------|-------------------------|----------------------|
B|------------------|-------------------------|----------------7-----|
G|--------------7---|-7----9-7-9b11----9p7----|----------------7-----|
D|--4---2-----9---9-|----------------------9--|--4------2----9-----9-|
A|--2---0-----------|-------------------------|--2------0------------|
E|------------------|-------------------------|----------------------|
 
e|--------------------------------|-----------|----------------|
B|-7----9---7-9b10-------9p7------|-----------|----------------|
G|-7----9---7-9b--11-----9p7------|-----------|----------------|
D|----------------------------9---|-----------|------------x\--|
A|--------------------------------|-----------|------------x\\-|
E|--------------------------------|-----------|--------------\-|
 
 
[Instrumental]
 
(Guitar 1)
 
e|------------------------------------|---------------------------------|
B|-12-0-10-0-9-0-10-0-9-0-7-0-9-0-5-0-|-7-0-4-0-5-0-4-0-5-0-4-0-5-0-4-0-|
G|------------------------------------|---------------------------------| x4
D|------------------------------------|---------------------------------|
A|------------------------------------|---------------------------------|
E|------------------------------------|---------------------------------|
 
(Guitar 2)
 
e|---------------------|---------------------|
B|------------r--------|-r-------------------|
G|-4-------2--e--------|-e-------------------|
D|-4-------2--s--------|-s-------------------| x4
A|-2-------0--t--------|-t-------------------|
E|---------------------|---------------------|
 
 
[Fill]
 
(Guitar 1)
 
e|------------------------------------|---------------------------------|
B|-12-0-10-0-9-0-10-0-9-0-7-0-9-0-5-0-|-7-0-4-0-5-0-4-0-5-0-4-0-5-0-4-0-|
G|------------------------------------|---------------------------------|
D|------------------------------------|---------------------------------|
A|------------------------------------|---------------------------------|
E|------------------------------------|---------------------------------|
 
 
[Chorus]
 
e|---------------------|---------------------|
B|---------------------|---------------------|
G|-4-------2-----------|-2-------------------|
D|-4-------2-------0h2-|-2-------2-----------| x4
A|-2-------0-------0h2-|-0-------2-----------|
E|-----------------0---|---------0-----------|
 
 
[Bridge]
 
(Guitar 1)
 
e|------------------------------------|---------------------------------|
B|-12-0-10-0-9-0-10-0-9-0-7-0-9-0-5-0-|-7-0-4-0-5-0-4-0-5-0-4-0-5-0-4-0-|
G|------------------------------------|---------------------------------| x4
D|------------------------------------|---------------------------------|
A|------------------------------------|---------------------------------|
E|------------------------------------|---------------------------------|
 
(Guitar 2)
 
e|-----------------|-----------------|
B|-----------------|-----------------|
G|-4---------------|-----------------|
D|-4-------------2-|(2)--------------| x4
A|-2-------------2-|(2)--------------|
E|-----------2-4-0-|(0)--------------|
 
 
[Chorus / Outro]
 
e|---------------------|---------------------|
B|---------------------|---------------------|
G|-4-------2-----------|-2-------------------|
D|-4-------2-------0h2-|-2-------2-----------| x8
A|-2-------0-------0h2-|-0-------2-----------|
E|-----------------0---|---------0-----------|
 
 
[Ending]
 
(Guitar 1)
 
e|------------------------------------|---------------------------------|
B|-12-0-10-0-9-0-10-0-9-0-7-0-9-0-5-0-|-7-0-4-0-5-0-4-0-5-0-4-0-5-0-4-0-|
G|------------------------------------|---------------------------------| x2
D|------------------------------------|---------------------------------|
A|------------------------------------|---------------------------------|
E|------------------------------------|---------------------------------|
 
(Guitar 2)
 
e|---------------------|---------------------|
B|---------------------|---------------------|
G|-4-------------------|(4)------------------|
D|-4-------------------|(4)------------------| x2
A|-2-------------------|(2)------------------|
E|---------------------|---------------------|
 
(Both Guitars)
 
e|---|
B|---|
G|-4-|
D|-4-|
A|-2-|
E|---|
 
 
***********************************
 
|  /   Slide up
|  \   Slide down
|  h   Hammer-on
|  p   Pull-off
|  ~   Vibrato
|  .   Staccato
|  x   Dead note
|  pm  Palm mute
|  b   Bend
|  r   Release
| (n)  Hold note over bar line
[Intro / Riff 1]

(Guitar 1)

e|---|---------------------------------|------
B|-0-|-4-0-7-0-4-0-7-0-4-0-7-0-4-0-7-0-|-4-0-7
G|---|---------------------------------|------
D|---|---------------------------------|------
A|---|---------------------------------|------
E|---|---------------------------------|------
---------------------------|
-0-4-0-7-0-4-0-7-0-4-0-7-0-|
---------------------------|
---------------------------|
---------------------------|
---------------------------|

e|---------------------------------|----------
B|-5-0-8-0-5-0-8-0-5-0-8-0-5-0-8-0-|-5-0-8-0-5
G|---------------------------------|----------
D|---------------------------------|----------
A|---------------------------------|----------
E|---------------------------------|----------
-----------------------|
-0-8-0-5-0-8-0-5-0-8-0-|
-----------------------|
-----------------------|
-----------------------|
-----------------------|

e|---------------------------------|----------
B|-4-0-7-0-4-0-7-0-4-0-7-0-4-0-7-0-|-4-0-7-0-4
G|---------------------------------|----------
D|---------------------------------|----------
A|---------------------------------|----------
E|---------------------------------|----------
-----------------------|
-0-7-0-4-0-7-0-4-0-7-0-|
-----------------------|
-----------------------|
-----------------------|
-----------------------|

e|---------------------------------|----------
B|-5-0-8-0-5-0-8-0-5-0-8-0-5-0-8-0-|-5-0-8-0-5
G|---------------------------------|----------
D|---------------------------------|----------
A|---------------------------------|----------
E|---------------------------------|----------
-----------------------|
-0-8-0-5-0-8-0-5-0-8-0-|
-----------------------|
-----------------------|
-----------------------|
-----------------------|


[Riff 2]

e|------------------------------------|-------
B|-12-0-10-0-9-0-10-0-9-0-7-0-9-0-5-0-|-7-0-4-
G|------------------------------------|-------
D|------------------------------------|-------
A|------------------------------------|-------
E|------------------------------------|-------
--------------------------|
0-5-0-4-0-5-0-4-0-5-0-4-0-|
--------------------------| x10
--------------------------|
--------------------------|
--------------------------|


(2nd guitar starts)

e|------------------------------------|-------
B|-12-0-10-0-9-0-10-0-9-0-7-0-9-0-5-0-|-7-0-4-
G|------------------------------------|-------
D|------------------------------------|-------
A|------------------------------------|-------
E|------------------------------------|-------
--------------------------|
0-5-0-4-0-5-0-4-0-5-0-4-0-|
--------------------------| x4
--------------------------|
--------------------------|
--------------------------|

(Guitar 2)
e|-------------------------------|------------
B|-------------------------------|------------
G|---4-----4-----4---4-----4-----|---4-----4--
D|---4-----4-----4---4-----4-----|---4-----4--
A|-2---2-------2-------2-------2-|-2---2------
E|-------------------------------|------------

-------------------|
-------------------|
---4---4-----4-----| x4
---4---4-----4-----|
-2-------2-------2-|
-------------------|
{.............................pm..............
...............}


[Verse 1]

(Guitar 1)

e|------------------------------------|-------
B|-12-0-10-0-9-0-10-0-9-0-7-0-9-0-5-0-|-7-0-4-
G|------------------------------------|-------
D|------------------------------------|-------
A|------------------------------------|-------
E|------------------------------------|-------
--------------------------|
0-5-0-4-0-5-0-4-0-5-0-4-0-|
--------------------------| x8
--------------------------|
--------------------------|
--------------------------|

(Guitar 2)
e|-------------------------------|------------
B|-------------------------------|------------
G|---4-----4-----4---4-----4-----|---4-----4--
D|---4-----4-----4---4-----4-----|---4-----4--
A|-2---2-------2-------2-------2-|-2---2------
E|-------------------------------|------------

-------------------|
-------------------|
---4---4-----4-----| x8
---4---4-----4-----|
-2-------2-------2-|
-------------------|
{.............................pm..............
...............}


[Pre-Chorus]

(Guitar 1)

e|------------------------------------|-------
B|-12-0-10-0-9-0-10-0-9-0-7-0-9-0-5-0-|-7-0-4-
G|------------------------------------|-------
D|------------------------------------|-------
A|------------------------------------|-------
E|------------------------------------|-------
--------------------------|
0-5-0-4-0-5-0-4-0-5-0-4-0-|
--------------------------| x4
--------------------------|
--------------------------|
--------------------------|

(Guitar 2)
                               .   .
e|-------------------------|------------------
B|------------------r------|------------------
G|-4-----------2----e------|----2---2---------
D|-4-----------2--2-s------|----2---2---2-----
A|-2-----------0--2-t------|----0---0---2-----
E|----------------0--------|------------0-----
------|
------|
------| x4
------|
------|
------|


[Fill]

(Guitar 1)

e|------------------------------------|-------
B|-12-0-10-0-9-0-10-0-9-0-7-0-9-0-5-0-|-7-0-4-
G|------------------------------------|-------
D|------------------------------------|-------
A|------------------------------------|-------
E|------------------------------------|-------
--------------------------|
0-5-0-4-0-5-0-4-0-5-0-4-0-|
--------------------------|
--------------------------|
--------------------------|
--------------------------|

(Guitar 2)
e|-------------------------------|------------
B|-------------------------------|------------
G|---4-----4-----4---4-----4-----|---4-----4--
D|---4-----4-----4---4-----4-----|---4-----4--
A|-2---2-------2-------2-------2-|-2---2------
E|-------------------------------|------------

-------------------|
-------------------|
---4---4-----4-----|
---4---4-----4-----|
-2-------2-------2-|
-------------------|
{.............................pm..............
...............}


[Instrumental]

(Guitar 1)

e|------------------------------------|-------
B|-12-0-10-0-9-0-10-0-9-0-7-0-9-0-5-0-|-7-0-4-
G|------------------------------------|-------
D|------------------------------------|-------
A|------------------------------------|-------
E|------------------------------------|-------
--------------------------|
0-5-0-4-0-5-0-4-0-5-0-4-0-|
--------------------------| x2
--------------------------|
--------------------------|
--------------------------|

(Guitar 2)
e|-------------------------------|------------
B|-------------------------------|------------
G|---4-----4-----4---4-----4-----|---4-----4--
D|---4-----4-----4---4-----4-----|---4-----4--
A|-2---2-------2-------2-------2-|-2---2------
E|-------------------------------|------------

-------------------|
-------------------|
---4---4-----4-----| x2
---4---4-----4-----|
-2-------2-------2-|
-------------------|
{.............................pm..............
...............}


[Verse 2]

(Guitar 1)

e|------------------------------------|-------
B|-12-0-10-0-9-0-10-0-9-0-7-0-9-0-5-0-|-7-0-4-
G|------------------------------------|-------
D|------------------------------------|-------
A|------------------------------------|-------
E|------------------------------------|-------
--------------------------|
0-5-0-4-0-5-0-4-0-5-0-4-0-|
--------------------------| x8
--------------------------|
--------------------------|
--------------------------|

(Guitar 2)
e|-------------------------------|------------
B|-------------------------------|------------
G|---4-----4-----4---4-----4-----|---4-----4--
D|---4-----4-----4---4-----4-----|---4-----4--
A|-2---2-------2-------2-------2-|-2---2------
E|-------------------------------|------------

-------------------|
-------------------|
---4---4-----4-----| x8
---4---4-----4-----|
-2-------2-------2-|
-------------------|
{.............................pm..............
...............}


[Bridge]

e|---------------------|---------------------|
B|--------------r------|-r-------------------|
G|-4----2-------e------|-e--------------2----|
D|-4----2----2--s------|-s--------------2----|
A|-2----0----2--t------|-t--------------0----|
E|-----------0---------|---------------------|
x3

e|---------------------|---------------------|
B|--------------r------|-r-------------------|
G|-4----2-------e------|-e-------------------|
D|-4----2----2--s------|-s-------------------|
A|-2----0----2--t------|-t-------------------|
E|-----------0---------|---------------------|


[Chorus]

e|---------------------|---------------------|
B|---------------------|---------------------|
G|-4-------2-----------|-2-------------------|
D|-4-------2-------0h2-|-2-------2-----------|
A|-2-------0-------0h2-|-0-------2-----------|
E|-----------------0---|---------0-----------|
x4


[Instrumental]

(Guitar 1)

e|------------------------------------|-------
B|-12-0-10-0-9-0-10-0-9-0-7-0-9-0-5-0-|-7-0-4-
G|------------------------------------|-------
D|------------------------------------|-------
A|------------------------------------|-------
E|------------------------------------|-------
--------------------------|
0-5-0-4-0-5-0-4-0-5-0-4-0-|
--------------------------| x2
--------------------------|
--------------------------|
--------------------------|

(Guitar 2)

e|---------------------|---------------------|
B|---------------------|---------------------|
G|-4-------------------|(4)------------------|
D|-4-------------------|(4)------------------|
A|-2-------------------|(2)------------------|
E|---------------------|---------------------|
x2


[Interlude]

(Guitar 1)

e|------------------------------------|-------
B|-12-0-10-0-9-0-10-0-9-0-7-0-9-0-5-0-|-7-0-4-
G|------------------------------------|-------
D|------------------------------------|-------
A|------------------------------------|-------
E|------------------------------------|-------
--------------------------|
0-5-0-4-0-5-0-4-0-5-0-4-0-|
--------------------------| x2
--------------------------|
--------------------------|
--------------------------|

(Guitar 2)

e|---------------------|---------------------|
B|---------------------|---------------------|
G|---------4-----------|(4)------------------|
D|-4--2----4-----------|(4)------------------|
A|---------2-----------|(2)------------------|
E|---------------------|---------------------|
x2


[Solo]

e|-------------------|------------------------
B|-------------------|-9--9-------------------
G|-------------------|-9--9-------------------
D|-------------x\----|-9--9------9------------
A|-------------x\----|------------------------
E|-------------------|------------------------
|--------------------------|
|-10---------9-------------|
|-9----------9-----9b11----|
|-11---------9-------------|
|--------------------------|
|--------------------------|

e|-------------------|------------------------
B|-------------------|------------------------
G|-------------------|------------------------
D|-------------------|-----------4----------2-
A|---------------x/--|-2---------2----------0-
E|---------------x/--|-0----------------0-2---
|--------------------------|
|--------------------------|
|--------------------------|
|-2------------------------|
|-0----------2-------------|
|------------0-------------|

e|-7-------------------------------|----------
B|---10-7---7----------------------|----------
G|--------9---7--------------------|----------
D|--------------9--------\------7--|-7--------
A|-------------------------/9------|----------
E|---------------------------------|----------
---------------------------|
---------------------------|
---------------------------|
------9-----------9b11-----|
---------------------------|
---------------------------|

e|---------------------------------------|----
B|---------------------------------------|----
G|------7-9---11p9p7--11p9p7----11p9p7---|-7b9
D|----9----------------------9---------9-|----
A|---------------------------------------|----
E|---------------------------------------|----
--------------------------17b19-|
--------------------------------|
-r7-----------------------------|
------------9-------------------|
--------------------------------|
-------------------0--0---------|

e|------17-14---------------------17-14-------
B|-----------17b19----17-15-17b19------17-18-1
G|--------------------------------------------
D|--------------------------------------------
A|--------------------------------------------
E|--------------------------------------------
-----|
7-15-|
-----|
-----|
-----|
-----|

e|------------------------------------------|
B|----15b17-15b17-15b17----------------\----|
G|-16-----------------------------------\---|
D|------------------------------------------|
A|------------------------------------------|
E|------------------------------------------|

e|------------------|-------------------------
B|------------------|-------------------------
G|--------------7---|-7----9-7-9b11----9p7----
D|--4---2-----9---9-|----------------------9--
A|--2---0-----------|-------------------------
E|------------------|-------------------------
|----------------------|
|----------------7-----|
|----------------7-----|
|--4------2----9-----9-|
|--2------0------------|
|----------------------|

e|--------------------------------|-----------
B|-7----9---7-9b10-------9p7------|-----------
G|-7----9---7-9b--11-----9p7------|-----------
D|----------------------------9---|-----------
A|--------------------------------|-----------
E|--------------------------------|-----------
|----------------|
|----------------|
|----------------|
|------------x\--|
|------------x\\-|
|--------------\-|


[Instrumental]

(Guitar 1)

e|------------------------------------|-------
B|-12-0-10-0-9-0-10-0-9-0-7-0-9-0-5-0-|-7-0-4-
G|------------------------------------|-------
D|------------------------------------|-------
A|------------------------------------|-------
E|------------------------------------|-------
--------------------------|
0-5-0-4-0-5-0-4-0-5-0-4-0-|
--------------------------| x4
--------------------------|
--------------------------|
--------------------------|

(Guitar 2)

e|---------------------|---------------------|
B|------------r--------|-r-------------------|
G|-4-------2--e--------|-e-------------------|
D|-4-------2--s--------|-s-------------------|
A|-2-------0--t--------|-t-------------------|
E|---------------------|---------------------|
x4


[Fill]

(Guitar 1)

e|------------------------------------|-------
B|-12-0-10-0-9-0-10-0-9-0-7-0-9-0-5-0-|-7-0-4-
G|------------------------------------|-------
D|------------------------------------|-------
A|------------------------------------|-------
E|------------------------------------|-------
--------------------------|
0-5-0-4-0-5-0-4-0-5-0-4-0-|
--------------------------|
--------------------------|
--------------------------|
--------------------------|


[Chorus]

e|---------------------|---------------------|
B|---------------------|---------------------|
G|-4-------2-----------|-2-------------------|
D|-4-------2-------0h2-|-2-------2-----------|
A|-2-------0-------0h2-|-0-------2-----------|
E|-----------------0---|---------0-----------|
x4


[Bridge]

(Guitar 1)

e|------------------------------------|-------
B|-12-0-10-0-9-0-10-0-9-0-7-0-9-0-5-0-|-7-0-4-
G|------------------------------------|-------
D|------------------------------------|-------
A|------------------------------------|-------
E|------------------------------------|-------
--------------------------|
0-5-0-4-0-5-0-4-0-5-0-4-0-|
--------------------------| x4
--------------------------|
--------------------------|
--------------------------|

(Guitar 2)

e|-----------------|-----------------|
B|-----------------|-----------------|
G|-4---------------|-----------------|
D|-4-------------2-|(2)--------------| x4
A|-2-------------2-|(2)--------------|
E|-----------2-4-0-|(0)--------------|


[Chorus / Outro]

e|---------------------|---------------------|
B|---------------------|---------------------|
G|-4-------2-----------|-2-------------------|
D|-4-------2-------0h2-|-2-------2-----------|
A|-2-------0-------0h2-|-0-------2-----------|
E|-----------------0---|---------0-----------|
x8


[Ending]

(Guitar 1)

e|------------------------------------|-------
B|-12-0-10-0-9-0-10-0-9-0-7-0-9-0-5-0-|-7-0-4-
G|------------------------------------|-------
D|------------------------------------|-------
A|------------------------------------|-------
E|------------------------------------|-------
--------------------------|
0-5-0-4-0-5-0-4-0-5-0-4-0-|
--------------------------| x2
--------------------------|
--------------------------|
--------------------------|

(Guitar 2)

e|---------------------|---------------------|
B|---------------------|---------------------|
G|-4-------------------|(4)------------------|
D|-4-------------------|(4)------------------|
A|-2-------------------|(2)------------------|
E|---------------------|---------------------|
x2

(Both Guitars)

e|---|
B|---|
G|-4-|
D|-4-|
A|-2-|
E|---|


***********************************

|  /   Slide up
|  \   Slide down
|  h   Hammer-on
|  p   Pull-off
|  ~   Vibrato
|  .   Staccato
|  x   Dead note
|  pm  Palm mute
|  b   Bend
|  r   Release
| (n)  Hold note over bar line

***********************************

Tags: guitar tab, tablature, AC DC, Angus Young