Artist Profile

Graceland Too Intro Guitar Tab

‣ Phoebe Bridgers
[Intro]
 
e|----------------------------------------|
B|----------------------------------------|
G|------0---------------------------------|
D|--0h2---2-0-----------------------------|
A|--------------2---0-----0-2-------------|
E|----------------3-----3-------0---------|
 

e|----------------------------------------|
B|----------------------------------------|
G|-------0--------------------------------|
D|---0h2---2-0----------------------------|
A|---------------2---0-----0-2------------|
E|-----------------3-----3----------------|
 
 
************************************
 
| h   Hammer-on
 
************************************

Tags: guitar tablature, guitar tabs, Phoebe Bridgers