Artist Profile

Snow Hey Oh Guitar Tab

‣ Red Hot Chili Peppers
[Intro]

e|----------------------------------|
B|----------------------------------|
G|----4---4h6p4---4-----4---4h6p4---|
D|--6---6-------6-----6---6-------6-|
A|6-----------------7---------------|
E|----------------------------------|

------------------------------------|
------------------------------------|
------------------------6---6h8p6---|
----4---4h6p4---4-----8---8-------8-|
--6---6-------6---6/9---------------|
7-----------------------------------|x4



[Verse]

e|----------------------------------|
B|----------------------------------|
G|----4---4h6p4---4-----4---4h6p4---|
D|--6---6-------6-----6---6-------6-|
A|6-----------------7---------------|
E|----------------------------------|

------------------------------------|
------------------------------------|
------------------------6---6h8p6---|
----4---4h6p4---4-----8---8-------8-|
--6---6-------6---6/9---------------|
7-----------------------------------|


[Bridge]
(repeat until chorus)
e|7-----7----7---7----7---7---7----7|
B|9-----9----9---9----9---9---9----9|
G|8-----8----8---8----8---8---8----8|
D|9-----9----9---9----9---9---9----9|
A|----------------------------------|
E|----------------------------------|

7-----7---7---7----7---7---7----9---|
9-----9---9---9----9---9---9----11--|
8-----8---8---8----8---8---8----11--|
9-----9---9---9----9---9---9----11--|
------------------------------------|
------------------------------------|

e|11--11--11--11--11--11--11--11----|
B|12--12--12--12--12--12--12--12----|
G|13--13--13--13--13--13--13--13----|
D|13--13--13--13--13--13--13--13----|
A|----------------------------------|
E|----------------------------------|

11--11--11--11--11---9--9--9--------|
12--12--12--12--12---11-11-11-------|
13--13--13--13--13---11-11-11-------|
13--13--13--13--13---11-11-11-------|
------------------------------------|
------------------------------------|

e|7-----7----7---7----7---7---7----7|
B|9-----9----9---9----9---9---9----9|
G|8-----8----8---8----8---8---8----8|
D|9-----9----9---9----9---9---9----9|
A|----------------------------------|
E|----------------------------------|

7-----7---7---7----7---7---7----7---|
9-----9---9---9----9---9---9----9---|
8-----8---8---8----8---8---8----8---|
9-----9---9---9----9---9---9----9---|
------------------------------------|
------------------------------------|


[Chorus]
(repeat until verse)
e|7---7---7---7---7---7---7---7-----|
B|7---7---7---7---7---7---7---7-----|
G|8---8---8---8---8---8---8---8-----|
D|9---9---9---9---9---9---9---9-----|
A|9---9---9---9---9---9---9---9-----|

E|----------------------------------|
6---6---6---6---6---6---6---6-------|
7---7---7---7---7---7---7---7-------|
8---8---8---8---8---8---8---8-------|
8---8---8---8---8---8---8---8-------|
------------------------------------|
------------------------------------|

e|11--11--11--11--11--11--11--11----|
B|12--12--12--12--12--12--12--12----|
G|13--13--13--13--13--13--13--13----|
D|----------------13--13--13--13----|
A|----------------------------------|
E|----------------------------------|

11--11--11--11--11--11--11--11------|
12--12--12--12--12--12--12--12------|
13--13--13--13--13--13--13--13------|
13--13--13--13--13--13--13--13------|
11--11--11--11--11--11--11--11------|
----------------11--11--11--11------|


[Verse]
(repeat until bridge)
e|----------------------------------|
B|----------------------------------|
G|----4---4h6p4---4-----4---4h6p4---|
D|--6---6-------6-----6---6-------6-|
A|6-----------------7---------------|
E|----------------------------------|

------------------------------------|
------------------------------------|
------------------------6---6h8p6---|
----4---4h6p4---4-----8---8-------8-|
--6---6-------6---6/9---------------|
7-----------------------------------|


[Bridge]

e|7-----7----7---7----7---7---7----7|
B|9-----9----9---9----9---9---9----9|
G|8-----8----8---8----8---8---8----8|
D|9-----9----9---9----9---9---9----9|
A|----------------------------------|
E|----------------------------------|

7-----7---7---7----7---7---7----9---|
9-----9---9---9----9---9---9----11--|
8-----8---8---8----8---8---8----11--|
9-----9---9---9----9---9---9----11--|
------------------------------------|
------------------------------------|

e|11--11--11--11--11--11--11--11----|
B|12--12--12--12--12--12--12--12----|
G|13--13--13--13--13--13--13--13----|
D|13--13--13--13--13--13--13--13----|
A|----------------------------------|
E|----------------------------------|

11--11--11--11--11---9--9--9--------|
12--12--12--12--12---11-11-11-------|
13--13--13--13--13---11-11-11-------|
13--13--13--13--13---11-11-11-------|
------------------------------------|
------------------------------------|

e|7-----7----7---7----7---7---7----7|
B|9-----9----9---9----9---9---9----9|
G|8-----8----8---8----8---8---8----8|
D|9-----9----9---9----9---9---9----9|
A|----------------------------------|
E|----------------------------------|

7-----7---7---7----7---7---7----7---|
9-----9---9---9----9---9---9----9---|
8-----8---8---8----8---8---8----8---|
9-----9---9---9----9---9---9----9---|
------------------------------------|
------------------------------------|


[Chorus]
(repeat untl outro/solo)
e|7---7---7---7---7---7---7---7-----|
B|7---7---7---7---7---7---7---7-----|
G|8---8---8---8---8---8---8---8-----|
D|9---9---9---9---9---9---9---9-----|
A|9---9---9---9---9---9---9---9-----|
E|----------------------------------|

6---6---6---6---6---6---6---6-------|
7---7---7---7---7---7---7---7-------|
8---8---8---8---8---8---8---8-------|
8---8---8---8---8---8---8---8-------|
------------------------------------|
------------------------------------|

e|11--11--11--11--11--11--11--11----|
B|12--12--12--12--12--12--12--12----|
G|13--13--13--13--13--13--13--13----|
D|----------------13--13--13--13----|
A|----------------------------------|
E|----------------------------------|

11--11--11--11--11--11--11--11------|
12--12--12--12--12--12--12--12------|
13--13--13--13--13--13--13--13------|
13--13--13--13--13--13--13--13------|
11--11--11--11--11--11--11--11------|
----------------11--11--11--11------|


[Outro/Solo]

e|----------------------------------|
B|7---------------7--------7--------|
G|9b11------------9b11-----9b11-----|
D|----------------------------------|
A|----------------------------------|
E|----------------------------------|

------------------------------------|
11--------------11-------11---------|
13b15-----------13b15----13b15------|
------------------------------------|
------------------------------------|
------------------------------------|

e|16--------------16-------16-------|
B|19b21-----------19b21----19b21----|
G|----------------------------------|
D|----------------------------------|
A|----------------------------------|
E|----------------------------------|

16--------------16-------16----16---|
19b21-----------19b21----19b21-19b21|
------------------------------------|
------------------------------------|
------------------------------------|
------------------------------------|

e|----------------------------------|
B|7---------------7--------7--------|
G|9b11------------9b11-----9b11-----|
D|----------------------------------|
A|----------------------------------|
E|----------------------------------|

------------------------------------|
11--------------11-------11---------|
13b15-----------13b15----13b15------|
------------------------------------|
------------------------------------|
------------------------------------|

e|----------------------------------|
B|9---------------------------------|
G|11b13-----------------------------|
D|----------------------------------|
A|----------------------------------|
E|----------------------------------|


***********************************

| /   Slide up
| h   Hammer-on
| p   Pull-off
| b   Bend

***********************************
[Intro]
 
e|----------------------------------|------------------------------------|
B|----------------------------------|------------------------------------|
G|----4---4h6p4---4-----4---4h6p4---|------------------------6---6h8p6---| x4
D|--6---6-------6-----6---6-------6-|----4---4h6p4---4-----8---8-------8-|
A|6-----------------7---------------|--6---6-------6---6/9---------------|
E|----------------------------------|7-----------------------------------|
 
 
[Verse]
 
e|----------------------------------|------------------------------------|
B|----------------------------------|------------------------------------|
G|----4---4h6p4---4-----4---4h6p4---|------------------------6---6h8p6---|
D|--6---6-------6-----6---6-------6-|----4---4h6p4---4-----8---8-------8-|
A|6-----------------7---------------|--6---6-------6---6/9---------------|
E|----------------------------------|7-----------------------------------|
 
 
[Bridge]
(repeat until chorus)
e|7-----7----7---7----7---7---7----7|7-----7---7---7----7---7---7----9---|
B|9-----9----9---9----9---9---9----9|9-----9---9---9----9---9---9----11--|
G|8-----8----8---8----8---8---8----8|8-----8---8---8----8---8---8----11--|
D|9-----9----9---9----9---9---9----9|9-----9---9---9----9---9---9----11--|
A|----------------------------------|------------------------------------|
E|----------------------------------|------------------------------------|
 
e|11--11--11--11--11--11--11--11----|11--11--11--11--11---9--9--9--------|
B|12--12--12--12--12--12--12--12----|12--12--12--12--12---11-11-11-------|
G|13--13--13--13--13--13--13--13----|13--13--13--13--13---11-11-11-------|
D|13--13--13--13--13--13--13--13----|13--13--13--13--13---11-11-11-------|
A|----------------------------------|------------------------------------|
E|----------------------------------|------------------------------------|
 
e|7-----7----7---7----7---7---7----7|7-----7---7---7----7---7---7----7---|
B|9-----9----9---9----9---9---9----9|9-----9---9---9----9---9---9----9---|
G|8-----8----8---8----8---8---8----8|8-----8---8---8----8---8---8----8---|
D|9-----9----9---9----9---9---9----9|9-----9---9---9----9---9---9----9---|
A|----------------------------------|------------------------------------|
E|----------------------------------|------------------------------------|
 
 
[Chorus]
(repeat until verse)
e|7---7---7---7---7---7---7---7-----|6---6---6---6---6---6---6---6-------|
B|7---7---7---7---7---7---7---7-----|7---7---7---7---7---7---7---7-------|
G|8---8---8---8---8---8---8---8-----|8---8---8---8---8---8---8---8-------|
D|9---9---9---9---9---9---9---9-----|8---8---8---8---8---8---8---8-------|
A|9---9---9---9---9---9---9---9-----|------------------------------------|
E|----------------------------------|------------------------------------|
 
e|11--11--11--11--11--11--11--11----|11--11--11--11--11--11--11--11------|
B|12--12--12--12--12--12--12--12----|12--12--12--12--12--12--12--12------|
G|13--13--13--13--13--13--13--13----|13--13--13--13--13--13--13--13------|
D|----------------13--13--13--13----|13--13--13--13--13--13--13--13------|
A|----------------------------------|11--11--11--11--11--11--11--11------|
E|----------------------------------|----------------11--11--11--11------|
 
 
[Verse]
(repeat until bridge)
e|----------------------------------|------------------------------------|
B|----------------------------------|------------------------------------|
G|----4---4h6p4---4-----4---4h6p4---|------------------------6---6h8p6---|
D|--6---6-------6-----6---6-------6-|----4---4h6p4---4-----8---8-------8-|
A|6-----------------7---------------|--6---6-------6---6/9---------------|
E|----------------------------------|7-----------------------------------|
 
 
[Bridge]
 
e|7-----7----7---7----7---7---7----7|7-----7---7---7----7---7---7----9---|
B|9-----9----9---9----9---9---9----9|9-----9---9---9----9---9---9----11--|
G|8-----8----8---8----8---8---8----8|8-----8---8---8----8---8---8----11--|
D|9-----9----9---9----9---9---9----9|9-----9---9---9----9---9---9----11--|
A|----------------------------------|------------------------------------|
E|----------------------------------|------------------------------------|
 
e|11--11--11--11--11--11--11--11----|11--11--11--11--11---9--9--9--------|
B|12--12--12--12--12--12--12--12----|12--12--12--12--12---11-11-11-------|
G|13--13--13--13--13--13--13--13----|13--13--13--13--13---11-11-11-------|
D|13--13--13--13--13--13--13--13----|13--13--13--13--13---11-11-11-------|
A|----------------------------------|------------------------------------|
E|----------------------------------|------------------------------------|
 
e|7-----7----7---7----7---7---7----7|7-----7---7---7----7---7---7----7---|
B|9-----9----9---9----9---9---9----9|9-----9---9---9----9---9---9----9---|
G|8-----8----8---8----8---8---8----8|8-----8---8---8----8---8---8----8---|
D|9-----9----9---9----9---9---9----9|9-----9---9---9----9---9---9----9---|
A|----------------------------------|------------------------------------|
E|----------------------------------|------------------------------------|
 
 
[Chorus]
(repeat untl outro/solo)
e|7---7---7---7---7---7---7---7-----|6---6---6---6---6---6---6---6-------|
B|7---7---7---7---7---7---7---7-----|7---7---7---7---7---7---7---7-------|
G|8---8---8---8---8---8---8---8-----|8---8---8---8---8---8---8---8-------|
D|9---9---9---9---9---9---9---9-----|8---8---8---8---8---8---8---8-------|
A|9---9---9---9---9---9---9---9-----|------------------------------------|
E|----------------------------------|------------------------------------|
 
e|11--11--11--11--11--11--11--11----|11--11--11--11--11--11--11--11------|
B|12--12--12--12--12--12--12--12----|12--12--12--12--12--12--12--12------|
G|13--13--13--13--13--13--13--13----|13--13--13--13--13--13--13--13------|
D|----------------13--13--13--13----|13--13--13--13--13--13--13--13------|
A|----------------------------------|11--11--11--11--11--11--11--11------|
E|----------------------------------|----------------11--11--11--11------|
 
 
[Outro/Solo]
 
e|----------------------------------|------------------------------------|
B|7---------------7--------7--------|11--------------11-------11---------|
G|9b11------------9b11-----9b11-----|13b15-----------13b15----13b15------|
D|----------------------------------|------------------------------------|
A|----------------------------------|------------------------------------|
E|----------------------------------|------------------------------------|
 
e|16--------------16-------16-------|16--------------16-------16----16---|
B|19b21-----------19b21----19b21----|19b21-----------19b21----19b21-19b21|
G|----------------------------------|------------------------------------|
D|----------------------------------|------------------------------------|
A|----------------------------------|------------------------------------|
E|----------------------------------|------------------------------------|
 
e|----------------------------------|------------------------------------|
B|7---------------7--------7--------|11--------------11-------11---------|
G|9b11------------9b11-----9b11-----|13b15-----------13b15----13b15------|
D|----------------------------------|------------------------------------|
A|----------------------------------|------------------------------------|
E|----------------------------------|------------------------------------|
 
e|----------------------------------|
B|9---------------------------------|
G|11b13-----------------------------|
D|----------------------------------|
A|----------------------------------|
E|----------------------------------|
 
 
***********************************
 
| /   Slide up
| h   Hammer-on
| p   Pull-off
| b   Bend
 
***********************************
Tags: guitar tabs, tablature, ascii, Red Hot Chili Peppers, RHCP