Artist Profile

You Guitar Tab

‣ benny blanco ‣ Marshmello ‣ Vance Joy
This Tab Is Based On A Youtube Video By
@guitarzero2hero
 
[Verse 1] 3x
 
Eb|-----------------------------------|
Bb|---------------1-------------------|
Gb|-------------------------------2---|
Db|--------2--------------------------|
Ab|-0-----------------------3---------|
Eb|-------------------1---------------|
 
Eb|-----------------------------------|
Bb|-----------------------------------|
Gb|-0---------------------------------|
Db|--------2----------0h2---0---------|
Ab|-3-------------3---------------3---|
Eb|-----------------------------------|
 
Eb|-----------------------------------|
Bb|---------------1-------------------|
Gb|-------------------------------2---|
Db|--------2--------------------------|
Ab|-0-----------------------3---------|
Eb|-------------------1---------------|
 
Eb|-----------------------------------|
Bb|-----------------------------------|
Gb|-0---------------------------------|
Db|--------2----------2---------------|
Ab|-3-------------3-------------------|
Eb|-----------------------------------|
 
[Pre-Chorus]
 
Eb|-------------------------------0---|
Bb|-1-------------------------1h3-----|
Gb|-----------------------------------|
Db|-----------------------------------|
Ab|-0-------------------------0-------|
Eb|-----------------------------------|
 
Eb|-0---------------------------------|
Bb|-----------------------------------|
Gb|-----------------------------------|
Db|-----------------------------------|
Ab|-3---------------------------------|
Eb|-----------------------------------|
 
Eb|-----------------------------------|
Bb|-6-----------6---10------------10--|
Gb|-------0---------------0-----------|
Db|-----------------------------------|
Ab|-5---------------8-----------------|
Eb|-----------------------------------|
 
Eb|-----------------------------------|
Bb|-----------------------------------|
Gb|-2---------------------------------|
Db|-----------------------------------|
Ab|-----------------------------------|
Eb|-1---------------------------------|
 
Eb|-------------3-----------------0---|
Bb|-1-------------------------1h3-----|
Gb|-------0---------------------------|
Db|-----------------------------------|
Ab|-0-------------------------0-------|
Eb|-----------------------------------|
 
Eb|-0------------0--------------------|
Bb|-----------------------------------|
Gb|--------0--------------------------|
Db|-----------------------------------|
Ab|-3---------------------------------|
Eb|-----------------------------------|
 
Eb|-----------------------------------|
Bb|-6-----------6---5-------------5---|
Gb|-------0---------------0-----------|
Db|-----------------------------------|
Ab|-5---------------3-----------------|
Eb|-----------------------------------|
 
Eb|-----------------------------------|
Bb|-----------------------------------|
Gb|-2---------------------------------|
Db|-----------------------------------|
Ab|-----------------------------------|
Eb|-1---------------------------------|
 
[Chorus] Strumming: D--UX-D-
   Am      F      C       C
Eb|-0------1------0-------0-----------|
Bb|-1------1------1-------1-----------|
Gb|-2------2------0-------0-----------| Play 4x
Db|-2------3------2-------2-----------|
Ab|-0------3------3-------3-----------|
Eb|--------1--------------------------|
 
[Verse 1] 2x
 
Eb|-----------------------------------|
Bb|---------------1-------------------|
Gb|-------------------------------2---|
Db|--------2--------------------------|
Ab|-0-----------------------3---------|
Eb|-------------------1---------------|
 
Eb|-----------------------------------|
Bb|-----------------------------------|
Gb|-0---------------------------------|
Db|--------2----------0h2---0---------|
Ab|-3-------------3---------------3---|
Eb|-----------------------------------|
 
Eb|-----------------------------------|
Bb|---------------1-------------------|
Gb|-------------------------------2---|
Db|--------2--------------------------|
Ab|-0-----------------------3---------|
Eb|-------------------1---------------|
 
Eb|-----------------------------------|
Bb|-----------------------------------|
Gb|-0---------------------------------|
Db|--------2----------2---------------|
Ab|-3-------------3-------------------|
Eb|-----------------------------------|
 
[Pre-Chorus]
 
Eb|-------------------------------0---|
Bb|-1-------------------------1h3-----|
Gb|-----------------------------------|
Db|-----------------------------------|
Ab|-0-------------------------0-------|
Eb|-----------------------------------|
 
Eb|-0---------------------------------|
Bb|-----------------------------------|
Gb|-----------------------------------|
Db|-----------------------------------|
Ab|-3---------------------------------|
Eb|-----------------------------------|
 
Eb|-----------------------------------|
Bb|-6-----------6---10------------10--|
Gb|-------0---------------0-----------|
Db|-----------------------------------|
Ab|-5---------------8-----------------|
Eb|-----------------------------------|
 
Eb|-----------------------------------|
Bb|-----------------------------------|
Gb|-2---------------------------------|
Db|-----------------------------------|
Ab|-----------------------------------|
Eb|-1---------------------------------|
 
Eb|-------------3-----------------0---|
Bb|-1-------------------------1h3-----|
Gb|-------0---------------------------|
Db|-----------------------------------|
Ab|-0-------------------------0-------|
Eb|-----------------------------------|
 
Eb|-0------------0--------------------|
Bb|-----------------------------------|
Gb|--------0--------------------------|
Db|-----------------------------------|
Ab|-3---------------------------------|
Eb|-----------------------------------|
 
Eb|-----------------------------------|
Bb|-6-----------6---5-------------5---|
Gb|-------0---------------0-----------|
Db|-----------------------------------|
Ab|-5---------------3-----------------|
Eb|-----------------------------------|
 
Eb|-----------------------------------|
Bb|-----------------------------------|
Gb|-2---------------------------------|
Db|-----------------------------------|
Ab|-----------------------------------|
Eb|-1---------------------------------|
 
[Chorus] Strumming: D--UX-D-
   Am      F      C       C
Eb|-0------1------0-------0-----------|
Bb|-1------1------1-------1-----------|
Gb|-2------2------0-------0-----------| Play 4x
Db|-2------3------2-------2-----------|
Ab|-0------3------3-------3-----------|
Eb|--------1--------------------------|
 
[Bridge]
 
Eb|-------------3-----------------0---|
Bb|-1-------------------------1h3-----|
Gb|-------0---------------------------|
Db|-----------------------------------|
Ab|-0-------------------------0-------|
Eb|-----------------------------------|
 
Eb|-0---------------------------------|
Bb|-----------------------------------|
Gb|-----------------------------------|
Db|-----------------------------------|
Ab|-3---------------------------------|
Eb|-----------------------------------|
 
Eb|-----------------------------------|
Bb|-6-----------6---5-------------5---|
Gb|-------0---------------0-----------|
Db|-----------------------------------|
Ab|-5---------------3-----------------|
Eb|-----------------------------------|
 
Eb|-----------------------------------|
Bb|-----------------------------------|
Gb|-2---------------------------------|
Db|-----------------------------------|
Ab|-----------------------------------|
Eb|-1---------------------------------|
 
Eb|-------------3-----------------0---|
Bb|-1-------------------------1h3-----|
Gb|-------0---------------------------|
Db|-----------------------------------|
Ab|-0-------------------------0-------|
Eb|-----------------------------------|
 
Eb|-0------------0--------------------|
Bb|-----------------------------------|
Gb|--------0--------------------------|
Db|-----------------------------------|
Ab|-3---------------------------------|
Eb|-----------------------------------|
 
Eb|-----------------------------------|
Bb|-6-----------6---5-------------5---|
Gb|-------0---------------0-----------|
Db|-----------------------------------|
Ab|-5---------------3-----------------|
Eb|-----------------------------------|
 
Eb|-----------------------------------|
Bb|-----------------------------------|
Gb|-2---------------------------------|
Db|-----------------------------------|
Ab|-----------------------------------|
Eb|-1---------------------------------|
 
 
[Chorus] Strumming: D--UX-D-
   Am      F      C       C
Eb|-0------1------0-------0-----------|
Bb|-1------1------1-------1-----------|
Gb|-2------2------0-------0-----------| Play 4x
Db|-2------3------2-------2-----------|
Ab|-0------3------3-------3-----------|
Eb|--------1--------------------------|
 
 
[outro]
 
   Am      F      C
Eb|-0------1------0-------------------|
Bb|-1------1------1-------------------|
Gb|-2------2------0-------------------|
Db|-2------3------2-------------------|
Ab|-0------3------3-------------------|
Eb|--------1--------------------------|
 
 
 
************************************
 
| b  Bend
| h  Hammer-on
 
************************************

Tags: easy guitar chords, song lyrics, benny blanco, Marshmello & Vance Joy